  0
SECTION
  2
HEADER
  9
$ACADVER
  1
AC1014
  9
$ACADMAINTVER
 70
     9
  9
$DWGCODEPAGE
  3
ANSI_932
  9
$INSBASE
 10
0.0
 20
0.0
 30
0.0
  9
$EXTMIN
 10
-1665.0
 20
-1155.0
 30
0.0
  9
$EXTMAX
 10
1665.0
 20
1155.0
 30
0.0
  9
$LIMMIN
 10
-557.0
 20
-407.0
  9
$LIMMAX
 10
557.0
 20
407.0
  9
$ORTHOMODE
 70
     0
  9
$REGENMODE
 70
     0
  9
$FILLMODE
 70
     1
  9
$QTEXTMODE
 70
     0
  9
$MIRRTEXT
 70
     1
  9
$DRAGMODE
 70
     2
  9
$LTSCALE
 40
2.0
  9
$OSMODE
 70
    37
  9
$ATTMODE
 70
     1
  9
$TEXTSIZE
 40
0.2
  9
$TRACEWID
 40
0.05
  9
$TEXTSTYLE
  7
STANDARD
  9
$CLAYER
  8
0
  9
$CELTYPE
  6
BYLAYER
  9
$CECOLOR
 62
   256
  9
$CELTSCALE
 40
1.0
  9
$DELOBJ
 70
     1
  9
$DISPSILH
 70
     0
  9
$DIMSCALE
 40
1.0
  9
$DIMASZ
 40
0.18
  9
$DIMEXO
 40
0.0625
  9
$DIMDLI
 40
0.38
  9
$DIMRND
 40
0.0
  9
$DIMDLE
 40
0.0
  9
$DIMEXE
 40
0.18
  9
$DIMTP
 40
0.0
  9
$DIMTM
 40
0.0
  9
$DIMTXT
 40
0.18
  9
$DIMCEN
 40
0.09
  9
$DIMTSZ
 40
0.0
  9
$DIMTOL
 70
     0
  9
$DIMLIM
 70
     0
  9
$DIMTIH
 70
     1
  9
$DIMTOH
 70
     1
  9
$DIMSE1
 70
     0
  9
$DIMSE2
 70
     0
  9
$DIMTAD
 70
     3
  9
$DIMZIN
 70
     0
  9
$DIMBLK
  1

  9
$DIMASO
 70
     1
  9
$DIMSHO
 70
     1
  9
$DIMPOST
  1

  9
$DIMAPOST
  1

  9
$DIMALT
 70
     0
  9
$DIMALTD
 70
     2
  9
$DIMALTF
 40
25.4
  9
$DIMLFAC
 40
1.0
  9
$DIMTOFL
 70
     0
  9
$DIMTVP
 40
0.0
  9
$DIMTIX
 70
     0
  9
$DIMSOXD
 70
     0
  9
$DIMSAH
 70
     0
  9
$DIMBLK1
  1

  9
$DIMBLK2
  1

  9
$DIMSTYLE
  2
STANDARD
  9
$DIMCLRD
 70
     0
  9
$DIMCLRE
 70
     0
  9
$DIMCLRT
 70
     0
  9
$DIMTFAC
 40
1.0
  9
$DIMGAP
 40
0.09
  9
$DIMJUST
 70
     0
  9
$DIMSD1
 70
     0
  9
$DIMSD2
 70
     0
  9
$DIMTOLJ
 70
     1
  9
$DIMTZIN
 70
     0
  9
$DIMALTZ
 70
     0
  9
$DIMALTTZ
 70
     0
  9
$DIMFIT
 70
     3
  9
$DIMUPT
 70
     0
  9
$DIMUNIT
 70
     2
  9
$DIMDEC
 70
     4
  9
$DIMTDEC
 70
     4
  9
$DIMALTU
 70
     2
  9
$DIMALTTD
 70
     2
  9
$DIMTXSTY
  7
STANDARD
  9
$DIMAUNIT
 70
     0
  9
$LUNITS
 70
     2
  9
$LUPREC
 70
     4
  9
$SKETCHINC
 40
0.1
  9
$FILLETRAD
 40
0.5
  9
$AUNITS
 70
     0
  9
$AUPREC
 70
     0
  9
$MENU
  1
.
  9
$ELEVATION
 40
0.0
  9
$PELEVATION
 40
0.0
  9
$THICKNESS
 40
0.0
  9
$LIMCHECK
 70
     1
  9
$CHAMFERA
 40
0.5
  9
$CHAMFERB
 40
0.5
  9
$CHAMFERC
 40
1.0
  9
$CHAMFERD
 40
0.0
  9
$SKPOLY
 70
     0
  9
$TDCREATE
 40
0.0
  9
$TDUPDATE
 40
2453323.36904985
  9
$TDINDWG
 40
0.0000000116
  9
$TDUSRTIMER
 40
0.0000000116
  9
$USRTIMER
 70
     1
  9
$ANGBASE
 50
0.0
  9
$ANGDIR
 70
     0
  9
$PDMODE
 70
     0
  9
$PDSIZE
 40
1.0
  9
$PLINEWID
 40
0.0
  9
$COORDS
 70
     1
  9
$SPLFRAME
 70
     0
  9
$SPLINETYPE
 70
     6
  9
$SPLINESEGS
 70
     8
  9
$ATTDIA
 70
     0
  9
$ATTREQ
 70
     1
  9
$HANDLING
 70
     1
  9
$HANDSEED
  5
444
  9
$SURFTAB1
 70
     6
  9
$SURFTAB2
 70
     6
  9
$SURFTYPE
 70
     6
  9
$SURFU
 70
     6
  9
$SURFV
 70
     6
  9
$UCSNAME
  2

  9
$UCSORG
 10
0.0
 20
0.0
 30
0.0
  9
$UCSXDIR
 10
1.0
 20
0.0
 30
0.0
  9
$UCSYDIR
 10
0.0
 20
1.0
 30
0.0
  9
$PUCSNAME
  2

  9
$PUCSORG
 10
0.0
 20
0.0
 30
0.0
  9
$PUCSXDIR
 10
1.0
 20
0.0
 30
0.0
  9
$PUCSYDIR
 10
0.0
 20
1.0
 30
0.0
  9
$USERI1
 70
     0
  9
$USERI2
 70
     0
  9
$USERI3
 70
     0
  9
$USERI4
 70
     0
  9
$USERI5
 70
     0
  9
$USERR1
 40
0.0
  9
$USERR2
 40
0.0
  9
$USERR3
 40
0.0
  9
$USERR4
 40
0.0
  9
$USERR5
 40
0.0
  9
$WORLDVIEW
 70
     1
  9
$SHADEDGE
 70
     3
  9
$SHADEDIF
 70
    70
  9
$TILEMODE
 70
     1
  9
$MAXACTVP
 70
    64
  9
$PINSBASE
 10
0.0
 20
0.0
 30
0.0
  9
$PLIMCHECK
 70
     1
  9
$PEXTMIN
 10
1.000000000000000E+20
 20
1.000000000000000E+20
 30
1.000000000000000E+20
  9
$PEXTMAX
 10
-1.000000000000000E+20
 20
-1.000000000000000E+20
 30
-1.000000000000000E+20
  9
$PLIMMIN
 10
0.0
 20
0.0
  9
$PLIMMAX
 10
12.0
 20
9.0
  9
$UNITMODE
 70
     0
  9
$VISRETAIN
 70
     0
  9
$PLINEGEN
 70
     1
  9
$PSLTSCALE
 70
     0
  9
$TREEDEPTH
 70
  3020
  9
$PICKSTYLE
 70
     1
  9
$CMLSTYLE
  2
STANDARD
  9
$CMLJUST
 70
     0
  9
$CMLSCALE
 40
1.0
  9
$PROXYGRAPHICS
 70
     0
  9
$MEASUREMENT
 70
     1
  0
ENDSEC
  0
SECTION
  2
CLASSES
  0
CLASS
  1
ACDBDICTIONARYWDFLT
  2
AcDbDictionaryWithDefault
  3
ObjectDBX Classes
 90
        0
280
     0
281
     0
  0
CLASS
  1
XRECORD
  2
AcDbXrecord
  3
AutoCAD 2000
 90
        0
280
     0
281
     0
  0
CLASS
  1
LWPOLYLINE
  2
AcDbPolyline
  3
AutoCAD 2000
 90
        0
280
     0
281
     1
  0
CLASS
  1
HATCH
  2
AcDbHatch
  3
AutoCAD 2000
 90
        0
280
     0
281
     1
  0
CLASS
  1
ACDBPLACEHOLDER
  2
AcDbPlaceHolder
  3
ObjectDBX Classes
 90
        0
280
     0
281
     0
  0
CLASS
  1
LAYOUT
  2
AcDbLayout
  3
ObjectDBX Classes
 90
        0
280
     0
281
     0
  0
ENDSEC
  0
SECTION
  2
TABLES
  0
TABLE
  2
VPORT
  5
8
330
0
100
AcDbSymbolTable
 70
     2
  0
VPORT
  5
29
102
{ACAD_XDICTIONARY
360
442
102
}
330
8
100
AcDbSymbolTableRecord
100
AcDbViewportTableRecord
  2
*ACTIVE
 70
     0
 10
0.0
 20
0.0
 11
1.0
 21
1.0
 12
0.0
 22
0.0
 13
0.0
 23
0.0
 14
0.5
 24
0.5
 15
0.5
 25
0.5
 16
0.0
 26
0.0
 36
1.0
 17
0.0
 27
0.0
 37
0.0
 40
770.0077
 41
1.972972972850329
 42
50.0
 43
0.0
 44
0.0
 50
0.0
 51
0.0
 71
     0
 72
   100
 73
     1
 74
     1
 75
     0
 76
     0
 77
     0
 78
     0
  0
ENDTAB
  0
TABLE
  2
LTYPE
  5
5
330
0
100
AcDbSymbolTable
 70
    28
  0
LTYPE
  5
14
330
5
100
AcDbSymbolTableRecord
100
AcDbLinetypeTableRecord
  2
BYBLOCK
 70
     0
  3

 72
    65
 73
     0
 40
0.0
  0
LTYPE
  5
15
330
5
100
AcDbSymbolTableRecord
100
AcDbLinetypeTableRecord
  2
BYLAYER
 70
     0
  3

 72
    65
 73
     0
 40
0.0
  0
LTYPE
  5
16
330
5
100
AcDbSymbolTableRecord
100
AcDbLinetypeTableRecord
  2
CONTINUOUS
 70
     0
  3
Solid line
 72
    65
 73
     0
 40
0.0
  0
LTYPE
  5
31
330
5
100
AcDbSymbolTableRecord
100
AcDbLinetypeTableRecord
  2
HIDDENX2
 70
     0
  3
CADPAC LINETYPE
 72
    65
 73
     2
 40
9.93755575379123
 49
7.453166815343423
 74
     0
 49
-2.484388938447808
 74
     0
  0
LTYPE
  5
32
330
5
100
AcDbSymbolTableRecord
100
AcDbLinetypeTableRecord
  2
HIDDEN
 70
     0
  3
CADPAC LINETYPE
 72
    65
 73
     2
 40
7.453166815343423
 49
4.968777876895615
 74
     0
 49
-2.484388938447808
 74
     0
  0
LTYPE
  5
33
330
5
100
AcDbSymbolTableRecord
100
AcDbLinetypeTableRecord
  2
HIDDEN2
 70
     0
  3
CADPAC LINETYPE
 72
    65
 73
     2
 40
6.210972346119519
 49
3.726583407671711
 74
     0
 49
-2.484388938447808
 74
     0
  0
LTYPE
  5
34
330
5
100
AcDbSymbolTableRecord
100
AcDbLinetypeTableRecord
  2
DASHED
 70
     0
  3
CADPAC LINETYPE
 72
    65
 73
     2
 40
6.956289027653895
 49
4.968777876895615
 74
     0
 49
-1.98751115075828
 74
     0
  0
LTYPE
  5
35
330
5
100
AcDbSymbolTableRecord
100
AcDbLinetypeTableRecord
  2
DASHED2
 70
     0
  3
CADPAC LINETYPE
 72
    65
 73
     2
 40
4.471900089206088
 49
2.981266726137392
 74
     0
 49
-1.490633363068696
 74
     0
  0
LTYPE
  5
36
330
5
100
AcDbSymbolTableRecord
100
AcDbLinetypeTableRecord
  2
DASHEDX2
 70
     0
  3
CADPAC LINETYPE
 72
    65
 73
     2
 40
11.92506690454957
 49
9.937555753791287
 74
     0
 49
-1.98751115075828
 74
     0
  0
LTYPE
  5
37
330
5
100
AcDbSymbolTableRecord
100
AcDbLinetypeTableRecord
  2
DOTX2
 70
     0
  3
CADPAC LINETYPE
 72
    65
 73
     2
 40
4.34768064228372
 49
0.0
 74
     0
 49
-4.34768064228372
 74
     0
  0
LTYPE
  5
38
330
5
100
AcDbSymbolTableRecord
100
AcDbLinetypeTableRecord
  2
DOT
 70
     0
  3
CADPAC LINETYPE
 72
    65
 73
     2
 40
3.478144513826976
 49
0.0
 74
     0
 49
-3.478144513826976
 74
     0
  0
LTYPE
  5
39
330
5
100
AcDbSymbolTableRecord
100
AcDbLinetypeTableRecord
  2
DOT2
 70
     0
  3
CADPAC LINETYPE
 72
    65
 73
     2
 40
2.608608385370232
 49
0.0
 74
     0
 49
-2.608608385370232
 74
     0
  0
LTYPE
  5
3A
330
5
100
AcDbSymbolTableRecord
100
AcDbLinetypeTableRecord
  2
CENTERX2
 70
     0
  3
CADPAC LINETYPE
 72
    65
 73
     4
 40
14.90633363068685
 49
6.210972346119519
 74
     0
 49
-3.105486173059759
 74
     0
 49
2.484388938447808
 74
     0
 49
-3.105486173059759
 74
     0
  0
LTYPE
  5
3B
330
5
100
AcDbSymbolTableRecord
100
AcDbLinetypeTableRecord
  2
CENTER
 70
     0
  3
CADPAC LINETYPE
 72
    65
 73
     4
 40
11.42818911685992
 49
4.968777876895615
 74
     0
 49
-2.484388938447808
 74
     0
 49
1.490633363068685
 74
     0
 49
-2.484388938447808
 74
     0
  0
LTYPE
  5
3C
330
5
100
AcDbSymbolTableRecord
100
AcDbLinetypeTableRecord
  2
CENTER2
 70
     0
  3
CADPAC LINETYPE
 72
    65
 73
     4
 40
7.950044603032984
 49
3.726583407671711
 74
     0
 49
-1.863291703835856
 74
     0
 49
0.4968777876895615
 74
     0
 49
-1.863291703835856
 74
     0
  0
LTYPE
  5
3D
330
5
100
AcDbSymbolTableRecord
100
AcDbLinetypeTableRecord
  2
DASHDOTX2
 70
     0
  3
CADPAC LINETYPE
 72
    65
 73
     4
 40
23.85013380909925
 49
11.92506690454957
 74
     0
 49
-3.97502230151656
 74
     0
 49
3.97502230151656
 74
     0
 49
-3.97502230151656
 74
     0
  0
LTYPE
  5
3E
330
5
100
AcDbSymbolTableRecord
100
AcDbLinetypeTableRecord
  2
DASHDOT
 70
     0
  3
CADPAC LINETYPE
 72
    65
 73
     4
 40
11.92506690454957
 49
5.962533452274727
 74
     0
 49
-1.98751115075828
 74
     0
 49
1.98751115075828
 74
     0
 49
-1.98751115075828
 74
     0
  0
LTYPE
  5
3F
330
5
100
AcDbSymbolTableRecord
100
AcDbLinetypeTableRecord
  2
DASHDOT2
 70
     0
  3
CADPAC LINETYPE
 72
    65
 73
     4
 40
7.651917930419293
 49
4.471900089206045
 74
     0
 49
-1.49063336306871
 74
     0
 49
0.198751115075828
 74
     0
 49
-1.49063336306871
 74
     0
  0
LTYPE
  5
40
330
5
100
AcDbSymbolTableRecord
100
AcDbLinetypeTableRecord
  2
DIVIDEX2
 70
     0
  3
CADPAC LINETYPE
 72
    65
 73
     6
 40
31.80017841213237
 49
11.92506690454957
 74
     0
 49
-3.97502230151656
 74
     0
 49
3.97502230151656
 74
     0
 49
-3.97502230151656
 74
     0
 49
3.97502230151656
 74
     0
 49
-3.97502230151656
 74
     0
  0
LTYPE
  5
41
330
5
100
AcDbSymbolTableRecord
100
AcDbLinetypeTableRecord
  2
DIVIDE
 70
     0
  3
CADPAC LINETYPE
 72
    65
 73
     6
 40
15.90008920606613
 49
5.962533452274727
 74
     0
 49
-1.98751115075828
 74
     0
 49
1.98751115075828
 74
     0
 49
-1.98751115075828
 74
     0
 49
1.98751115075828
 74
     0
 49
-1.98751115075828
 74
     0
  0
LTYPE
  5
42
330
5
100
AcDbSymbolTableRecord
100
AcDbLinetypeTableRecord
  2
DIVIDE2
 70
     0
  3
CADPAC LINETYPE
 72
    65
 73
     6
 40
11.9250669045496
 49
4.471900089206045
 74
     0
 49
-1.49063336306871
 74
     0
 49
1.49063336306871
 74
     0
 49
-1.49063336306871
 74
     0
 49
1.49063336306871
 74
     0
 49
-1.49063336306871
 74
     0
  0
LTYPE
  5
43
330
5
100
AcDbSymbolTableRecord
100
AcDbLinetypeTableRecord
  2
BORDERX2
 70
     0
  3
CADPAC LINETYPE
 72
    65
 73
     6
 40
21.73840321141832
 49
6.210972346119519
 74
     0
 49
-3.105486173059759
 74
     0
 49
6.210972346119519
 74
     0
 49
-3.105486173059759
 74
     0
 49
0.0
 74
     0
 49
-3.105486173059759
 74
     0
  0
LTYPE
  5
44
330
5
100
AcDbSymbolTableRecord
100
AcDbLinetypeTableRecord
  2
BORDER
 70
     0
  3
CADPAC LINETYPE
 72
    65
 73
     6
 40
17.39072256913465
 49
4.968777876895615
 74
     0
 49
-2.484388938447808
 74
     0
 49
4.968777876895615
 74
     0
 49
-2.484388938447808
 74
     0
 49
0.0
 74
     0
 49
-2.484388938447808
 74
     0
  0
LTYPE
  5
45
330
5
100
AcDbSymbolTableRecord
100
AcDbLinetypeTableRecord
  2
BORDER2
 70
     0
  3
CADPAC LINETYPE
 72
    65
 73
     6
 40
12.91882247992868
 49
3.97502230151656
 74
     0
 49
-2.484388938447808
 74
     0
 49
1.490633363068696
 74
     0
 49
-2.484388938447808
 74
     0
 49
0.0
 74
     0
 49
-2.484388938447808
 74
     0
  0
LTYPE
  5
46
330
5
100
AcDbSymbolTableRecord
100
AcDbLinetypeTableRecord
  2
PHANTOMX2
 70
     0
  3
CADPAC LINETYPE
 72
    65
 73
     6
 40
18.63291703835856
 49
6.210972346119519
 74
     0
 49
-2.484388938447808
 74
     0
 49
2.484388938447808
 74
     0
 49
-2.484388938447808
 74
     0
 49
2.484388938447808
 74
     0
 49
-2.484388938447808
 74
     0
  0
LTYPE
  5
47
330
5
100
AcDbSymbolTableRecord
100
AcDbLinetypeTableRecord
  2
PHANTOM
 70
     0
  3
CADPAC LINETYPE
 72
    65
 73
     6
 40
15.40321141837641
 49
4.968777876895615
 74
     0
 49
-2.484388938447808
 74
     0
 49
1.490633363068685
 74
     0
 49
-2.484388938447808
 74
     0
 49
1.490633363068685
 74
     0
 49
-2.484388938447808
 74
     0
  0
LTYPE
  5
48
330
5
100
AcDbSymbolTableRecord
100
AcDbLinetypeTableRecord
  2
PHANTOM2
 70
     0
  3
CADPAC LINETYPE
 72
    65
 73
     6
 40
13.16726137377338
 49
3.726583407671711
 74
     0
 49
-2.484388938447808
 74
     0
 49
0.9937555753791231
 74
     0
 49
-2.484388938447808
 74
     0
 49
0.9937555753791231
 74
     0
 49
-2.484388938447808
 74
     0
  0
LTYPE
  5
49
330
5
100
AcDbSymbolTableRecord
100
AcDbLinetypeTableRecord
  2
ACAD_ISO06W100
 70
     0
  3
CADPAC LINETYPE
 72
    65
 73
     8
 40
26.33452274754689
 49
11.92506690454957
 74
     0
 49
-2.484388938447808
 74
     0
 49
1.490633363068696
 74
     0
 49
-2.484388938447808
 74
     0
 49
1.490633363068696
 74
     0
 49
-2.484388938447808
 74
     0
 49
1.490633363068696
 74
     0
 49
-2.484388938447808
 74
     0
  0
LTYPE
  5
4A
330
5
100
AcDbSymbolTableRecord
100
AcDbLinetypeTableRecord
  2
ACAD_ISO13W100
 70
     0
  3
CADPAC LINETYPE
 72
    65
 73
     8
 40
19.87511150758246
 49
4.968777876895615
 74
     0
 49
-2.484388938447808
 74
     0
 49
4.968777876895615
 74
     0
 49
-2.484388938447808
 74
     0
 49
0.0
 74
     0
 49
-2.484388938447808
 74
     0
 49
0.0
 74
     0
 49
-2.484388938447808
 74
     0
  0
LTYPE
  5
4B
330
5
100
AcDbSymbolTableRecord
100
AcDbLinetypeTableRecord
  2
ACAD_ISO14W100
 70
     0
  3
CADPAC LINETYPE
 72
    65
 73
     8
 40
14.90633363068685
 49
4.968777876895615
 74
     0
 49
-2.484388938447808
 74
     0
 49
0.0
 74
     0
 49
-2.484388938447808
 74
     0
 49
0.0
 74
     0
 49
-2.484388938447808
 74
     0
 49
0.0
 74
     0
 49
-2.484388938447808
 74
     0
  0
ENDTAB
  0
TABLE
  2
LAYER
  5
2
330
0
100
AcDbSymbolTable
 70
     5
  0
LAYER
  5
10
330
2
100
AcDbSymbolTableRecord
100
AcDbLayerTableRecord
  2
0
 70
     0
 62
     7
  6
CONTINUOUS
  0
LAYER
  5
2B
330
2
100
AcDbSymbolTableRecord
100
AcDbLayerTableRecord
  2
LAYER0002
 70
     0
 62
     7
  6
CONTINUOUS
  0
LAYER
  5
2C
330
2
100
AcDbSymbolTableRecord
100
AcDbLayerTableRecord
  2
LAYER0013
 70
     0
 62
     7
  6
CONTINUOUS
  0
LAYER
  5
2D
330
2
100
AcDbSymbolTableRecord
100
AcDbLayerTableRecord
  2
LAYER0014
 70
     0
 62
     7
  6
CONTINUOUS
  0
LAYER
  5
2E
330
2
100
AcDbSymbolTableRecord
100
AcDbLayerTableRecord
  2
ZUWAKU
 70
     0
 62
     7
  6
CONTINUOUS
  0
ENDTAB
  0
TABLE
  2
STYLE
  5
3
330
0
100
AcDbSymbolTable
 70
     3
  0
STYLE
  5
11
330
3
100
AcDbSymbolTableRecord
100
AcDbTextStyleTableRecord
  2
STANDARD
 70
     0
 40
0.0
 41
1.0
 50
0.0
 71
     0
 42
0.2
  3
txt
  4

  0
STYLE
  5
2F
330
3
100
AcDbSymbolTableRecord
100
AcDbTextStyleTableRecord
  2
DAVECTORFONT
 70
     0
 40
8.0
 41
1.0
 50
0.0
 71
     0
 42
0.2
  3
txt.shx
  4
bigfont.shx
  0
STYLE
  5
187
330
3
100
AcDbSymbolTableRecord
100
AcDbTextStyleTableRecord
  2
FDASTYLE0
 70
     0
 40
10.0
 41
1.0
 50
0.0
 71
     0
 42
0.2
  3
hgrsgu.ttc
  4

1001
ACAD
1000
HGS創英角ｺﾞｼｯｸUB
1071
       34
  0
ENDTAB
  0
TABLE
  2
VIEW
  5
6
330
0
100
AcDbSymbolTable
 70
     0
  0
ENDTAB
  0
TABLE
  2
UCS
  5
7
330
0
100
AcDbSymbolTable
 70
     0
  0
ENDTAB
  0
TABLE
  2
APPID
  5
9
330
0
100
AcDbSymbolTable
 70
     2
  0
APPID
  5
12
330
9
100
AcDbSymbolTableRecord
100
AcDbRegAppTableRecord
  2
ACAD
 70
     0
  0
APPID
  5
2A
330
9
100
AcDbSymbolTableRecord
100
AcDbRegAppTableRecord
  2
DAFUSIONOUT
 70
     0
  0
ENDTAB
  0
TABLE
  2
DIMSTYLE
  5
A
330
0
100
AcDbSymbolTable
 70
     1
  0
DIMSTYLE
105
27
330
A
100
AcDbSymbolTableRecord
100
AcDbDimStyleTableRecord
  2
STANDARD
 70
     0
  3

  4

  5

  6

  7

 40
1.0
 41
0.18
 42
0.0625
 43
0.38
 44
0.18
 45
0.0
 46
0.0
 47
0.0
 48
0.0
140
0.18
141
0.09
142
0.0
143
25.4
144
1.0
145
0.0
146
1.0
147
0.09
 71
     0
 72
     0
 73
     1
 74
     1
 75
     0
 76
     0
 77
     0
 78
     0
170
     0
171
     2
172
     0
173
     0
174
     0
175
     0
176
     0
177
     0
178
     0
270
     2
271
     4
272
     4
273
     2
274
     2
340
11
275
     0
280
     0
281
     0
282
     0
283
     1
284
     0
285
     0
286
     0
287
     3
288
     0
  0
ENDTAB
  0
TABLE
  2
BLOCK_RECORD
  5
1
330
0
100
AcDbSymbolTable
 70
    36
  0
BLOCK_RECORD
  5
1F
330
1
100
AcDbSymbolTableRecord
100
AcDbBlockTableRecord
  2
*MODEL_SPACE
  0
BLOCK_RECORD
  5
1B
330
1
100
AcDbSymbolTableRecord
100
AcDbBlockTableRecord
  2
*PAPER_SPACE
  0
BLOCK_RECORD
  5
4C
330
1
100
AcDbSymbolTableRecord
100
AcDbBlockTableRecord
  2
GROUP_1
  0
BLOCK_RECORD
  5
4F
330
1
100
AcDbSymbolTableRecord
100
AcDbBlockTableRecord
  2
GROUP_2
  0
BLOCK_RECORD
  5
52
330
1
100
AcDbSymbolTableRecord
100
AcDbBlockTableRecord
  2
GROUP_3
  0
BLOCK_RECORD
  5
55
330
1
100
AcDbSymbolTableRecord
100
AcDbBlockTableRecord
  2
GROUP_4
  0
BLOCK_RECORD
  5
58
330
1
100
AcDbSymbolTableRecord
100
AcDbBlockTableRecord
  2
DA_IMAGEDIMGROUP_1
  0
BLOCK_RECORD
  5
5B
330
1
100
AcDbSymbolTableRecord
100
AcDbBlockTableRecord
  2
_OPEN30
  0
BLOCK_RECORD
  5
5E
330
1
100
AcDbSymbolTableRecord
100
AcDbBlockTableRecord
  2
DA_IMAGEDIMGROUP_2
  0
BLOCK_RECORD
  5
61
330
1
100
AcDbSymbolTableRecord
100
AcDbBlockTableRecord
  2
GROUP_5
  0
BLOCK_RECORD
  5
64
330
1
100
AcDbSymbolTableRecord
100
AcDbBlockTableRecord
  2
DA_IMAGEDIMGROUP_3
  0
BLOCK_RECORD
  5
67
330
1
100
AcDbSymbolTableRecord
100
AcDbBlockTableRecord
  2
DA_IMAGEDIMGROUP_4
  0
BLOCK_RECORD
  5
6A
330
1
100
AcDbSymbolTableRecord
100
AcDbBlockTableRecord
  2
DA_IMAGEDIMGROUP_5
  0
BLOCK_RECORD
  5
6D
330
1
100
AcDbSymbolTableRecord
100
AcDbBlockTableRecord
  2
DA_IMAGEDIMGROUP_6
  0
BLOCK_RECORD
  5
70
330
1
100
AcDbSymbolTableRecord
100
AcDbBlockTableRecord
  2
DA_IMAGEDIMGROUP_7
  0
BLOCK_RECORD
  5
73
330
1
100
AcDbSymbolTableRecord
100
AcDbBlockTableRecord
  2
DA_IMAGEDIMGROUP_8
  0
BLOCK_RECORD
  5
76
330
1
100
AcDbSymbolTableRecord
100
AcDbBlockTableRecord
  2
DA_IMAGEDIMGROUP_9
  0
BLOCK_RECORD
  5
79
330
1
100
AcDbSymbolTableRecord
100
AcDbBlockTableRecord
  2
DA_IMAGEDIMGROUP_10
  0
BLOCK_RECORD
  5
7C
330
1
100
AcDbSymbolTableRecord
100
AcDbBlockTableRecord
  2
DA_IMAGEDIMGROUP_11
  0
BLOCK_RECORD
  5
7F
330
1
100
AcDbSymbolTableRecord
100
AcDbBlockTableRecord
  2
DA_IMAGEDIMGROUP_12
  0
BLOCK_RECORD
  5
82
330
1
100
AcDbSymbolTableRecord
100
AcDbBlockTableRecord
  2
DA_IMAGEDIMGROUP_13
  0
BLOCK_RECORD
  5
85
330
1
100
AcDbSymbolTableRecord
100
AcDbBlockTableRecord
  2
DA_IMAGEDIMGROUP_14
  0
BLOCK_RECORD
  5
88
330
1
100
AcDbSymbolTableRecord
100
AcDbBlockTableRecord
  2
DA_IMAGEDIMGROUP_15
  0
BLOCK_RECORD
  5
8B
330
1
100
AcDbSymbolTableRecord
100
AcDbBlockTableRecord
  2
DA_IMAGEDIMGROUP_16
  0
BLOCK_RECORD
  5
8E
330
1
100
AcDbSymbolTableRecord
100
AcDbBlockTableRecord
  2
DA_IMAGEDIMGROUP_17
  0
BLOCK_RECORD
  5
91
330
1
100
AcDbSymbolTableRecord
100
AcDbBlockTableRecord
  2
DA_IMAGEDIMGROUP_18
  0
BLOCK_RECORD
  5
94
330
1
100
AcDbSymbolTableRecord
100
AcDbBlockTableRecord
  2
DA_IMAGEDIMGROUP_19
  0
BLOCK_RECORD
  5
97
330
1
100
AcDbSymbolTableRecord
100
AcDbBlockTableRecord
  2
DA_IMAGEDIMGROUP_20
  0
BLOCK_RECORD
  5
9A
330
1
100
AcDbSymbolTableRecord
100
AcDbBlockTableRecord
  2
GROUP_6
  0
BLOCK_RECORD
  5
9D
330
1
100
AcDbSymbolTableRecord
100
AcDbBlockTableRecord
  2
DA_IMAGEDIMGROUP_21
  0
BLOCK_RECORD
  5
A0
330
1
100
AcDbSymbolTableRecord
100
AcDbBlockTableRecord
  2
DA_IMAGEDIMGROUP_22
  0
BLOCK_RECORD
  5
A3
330
1
100
AcDbSymbolTableRecord
100
AcDbBlockTableRecord
  2
DA_IMAGEDIMGROUP_23
  0
BLOCK_RECORD
  5
A6
330
1
100
AcDbSymbolTableRecord
100
AcDbBlockTableRecord
  2
GROUP_7
  0
BLOCK_RECORD
  5
A9
330
1
100
AcDbSymbolTableRecord
100
AcDbBlockTableRecord
  2
DA_IMAGEDIMGROUP_24
  0
BLOCK_RECORD
  5
AC
330
1
100
AcDbSymbolTableRecord
100
AcDbBlockTableRecord
  2
DA_IMAGEDIMGROUP_25
  0
BLOCK_RECORD
  5
AF
330
1
100
AcDbSymbolTableRecord
100
AcDbBlockTableRecord
  2
DA_IMAGEDIMGROUP_26
  0
BLOCK_RECORD
  5
B2
330
1
100
AcDbSymbolTableRecord
100
AcDbBlockTableRecord
  2
GROUP_8
  0
ENDTAB
  0
ENDSEC
  0
SECTION
  2
BLOCKS
  0
BLOCK
  5
20
330
1F
100
AcDbEntity
  8
0
100
AcDbBlockBegin
  2
*MODEL_SPACE
 70
     0
 71
     0
 10
0.0
 20
0.0
 30
0.0
  3
*MODEL_SPACE
  1

  0
ENDBLK
  5
21
330
1F
100
AcDbEntity
  8
0
100
AcDbBlockEnd
  0
BLOCK
  5
1C
330
1B
100
AcDbEntity
 67
     1
  8
0
100
AcDbBlockBegin
  2
*PAPER_SPACE
 70
     0
 71
     0
 10
0.0
 20
0.0
 30
0.0
  3
*PAPER_SPACE
  1

  0
ENDBLK
  5
1D
330
1B
100
AcDbEntity
 67
     1
  8
0
100
AcDbBlockEnd
  0
BLOCK
  5
4D
330
4C
100
AcDbEntity
  8
0
100
AcDbBlockBegin
  2
GROUP_1
 70
     0
 71
     0
 10
0.0
 20
0.0
 30
0.0
  3
GROUP_1
  1

  0
CIRCLE
  5
B5
330
4C
100
AcDbEntity
  8
0
 62
     3
100
AcDbCircle
 10
342.4169794323483
 20
-99.21434931881495
 30
0.0
 40
5.114359353944906
  0
CIRCLE
  5
B6
330
4C
100
AcDbEntity
  8
0
 62
     3
100
AcDbCircle
 10
342.4169794323483
 20
-99.21434931881495
 30
0.0
 40
6.5
  0
LINE
  5
B7
330
4C
100
AcDbEntity
  8
0
 62
     3
100
AcDbLine
 10
342.4169794323483
 20
-102.6784509339527
 30
0.0
 11
345.4169794323483
 21
-100.9464001263839
 31
0.0
  0
LINE
  5
B8
330
4C
100
AcDbEntity
  8
0
 62
     3
100
AcDbLine
 10
345.4169794323483
 20
-100.9464001263839
 30
0.0
 11
345.4169794323483
 21
-97.48229851124606
 31
0.0
  0
LINE
  5
B9
330
4C
100
AcDbEntity
  8
0
 62
     3
100
AcDbLine
 10
345.4169794323483
 20
-97.48229851124606
 30
0.0
 11
342.4169794323483
 21
-95.75024770367722
 31
0.0
  0
LINE
  5
BA
330
4C
100
AcDbEntity
  8
0
 62
     3
100
AcDbLine
 10
342.4169794323483
 20
-95.75024770367722
 30
0.0
 11
339.4169794323483
 21
-97.48229851124606
 31
0.0
  0
LINE
  5
BB
330
4C
100
AcDbEntity
  8
0
 62
     3
100
AcDbLine
 10
339.4169794323483
 20
-97.48229851124606
 30
0.0
 11
339.4169794323483
 21
-100.9464001263839
 31
0.0
  0
LINE
  5
BC
330
4C
100
AcDbEntity
  8
0
 62
     3
100
AcDbLine
 10
339.4169794323483
 20
-100.9464001263839
 30
0.0
 11
342.4169794323483
 21
-102.6784509339527
 31
0.0
  0
LINE
  5
BD
330
4C
100
AcDbEntity
  8
0
  6
CENTER
 62
     2
100
AcDbLine
 10
342.4169794323483
 20
-116.114349318815
 30
0.0
 11
342.4169794323483
 21
-89.46434931881495
 31
0.0
  0
LINE
  5
BE
330
4C
100
AcDbEntity
  8
0
  6
CENTER
 62
     2
100
AcDbLine
 10
352.1669794323483
 20
-99.21434931881495
 30
0.0
 11
332.6669794323483
 21
-99.21434931881495
 31
0.0
  0
ENDBLK
  5
4E
330
4C
100
AcDbEntity
  8
0
100
AcDbBlockEnd
  0
BLOCK
  5
50
330
4F
100
AcDbEntity
  8
0
100
AcDbBlockBegin
  2
GROUP_2
 70
     0
 71
     0
 10
0.0
 20
0.0
 30
0.0
  3
GROUP_2
  1

  0
CIRCLE
  5
BF
330
4F
100
AcDbEntity
  8
0
 62
     3
100
AcDbCircle
 10
342.4169794323483
 20
-112.214349318815
 30
0.0
 40
3.0
  0
LINE
  5
C0
330
4F
100
AcDbEntity
  8
0
  6
CENTER
 62
     2
100
AcDbLine
 10
338.5169794323484
 20
-112.214349318815
 30
0.0
 11
346.3169794323483
 21
-112.214349318815
 31
0.0
  0
ENDBLK
  5
51
330
4F
100
AcDbEntity
  8
0
100
AcDbBlockEnd
  0
BLOCK
  5
53
330
52
100
AcDbEntity
  8
0
100
AcDbBlockBegin
  2
GROUP_3
 70
     0
 71
     0
 10
0.0
 20
0.0
 30
0.0
  3
GROUP_3
  1

  0
CIRCLE
  5
C1
330
52
100
AcDbEntity
  8
0
 62
     3
100
AcDbCircle
 10
447.4169794323483
 20
-99.21434931881495
 30
0.0
 40
5.114359353944906
  0
CIRCLE
  5
C2
330
52
100
AcDbEntity
  8
0
 62
     3
100
AcDbCircle
 10
447.4169794323483
 20
-99.21434931881495
 30
0.0
 40
6.5
  0
LINE
  5
C3
330
52
100
AcDbEntity
  8
0
 62
     3
100
AcDbLine
 10
447.4169794323483
 20
-102.6784509339527
 30
0.0
 11
444.4169794323483
 21
-100.9464001263839
 31
0.0
  0
LINE
  5
C4
330
52
100
AcDbEntity
  8
0
 62
     3
100
AcDbLine
 10
444.4169794323483
 20
-100.9464001263839
 30
0.0
 11
444.4169794323483
 21
-97.48229851124606
 31
0.0
  0
LINE
  5
C5
330
52
100
AcDbEntity
  8
0
 62
     3
100
AcDbLine
 10
444.4169794323483
 20
-97.48229851124606
 30
0.0
 11
447.4169794323483
 21
-95.75024770367722
 31
0.0
  0
LINE
  5
C6
330
52
100
AcDbEntity
  8
0
 62
     3
100
AcDbLine
 10
447.4169794323483
 20
-95.75024770367722
 30
0.0
 11
450.4169794323483
 21
-97.48229851124606
 31
0.0
  0
LINE
  5
C7
330
52
100
AcDbEntity
  8
0
 62
     3
100
AcDbLine
 10
450.4169794323483
 20
-97.48229851124606
 30
0.0
 11
450.4169794323483
 21
-100.9464001263839
 31
0.0
  0
LINE
  5
C8
330
52
100
AcDbEntity
  8
0
 62
     3
100
AcDbLine
 10
450.4169794323483
 20
-100.9464001263839
 30
0.0
 11
447.4169794323483
 21
-102.6784509339527
 31
0.0
  0
LINE
  5
C9
330
52
100
AcDbEntity
  8
0
  6
CENTER
 62
     2
100
AcDbLine
 10
447.4169794323483
 20
-116.114349318815
 30
0.0
 11
447.4169794323483
 21
-89.46434931881495
 31
0.0
  0
LINE
  5
CA
330
52
100
AcDbEntity
  8
0
  6
CENTER
 62
     2
100
AcDbLine
 10
437.6669794323483
 20
-99.21434931881495
 30
0.0
 11
457.1669794323483
 21
-99.21434931881495
 31
0.0
  0
ENDBLK
  5
54
330
52
100
AcDbEntity
  8
0
100
AcDbBlockEnd
  0
BLOCK
  5
56
330
55
100
AcDbEntity
  8
0
100
AcDbBlockBegin
  2
GROUP_4
 70
     0
 71
     0
 10
0.0
 20
0.0
 30
0.0
  3
GROUP_4
  1

  0
CIRCLE
  5
CB
330
55
100
AcDbEntity
  8
0
 62
     3
100
AcDbCircle
 10
447.4169794323483
 20
-112.214349318815
 30
0.0
 40
3.0
  0
LINE
  5
CC
330
55
100
AcDbEntity
  8
0
  6
CENTER
 62
     2
100
AcDbLine
 10
451.3169794323483
 20
-112.214349318815
 30
0.0
 11
443.5169794323484
 21
-112.214349318815
 31
0.0
  0
ENDBLK
  5
57
330
55
100
AcDbEntity
  8
0
100
AcDbBlockEnd
  0
BLOCK
  5
59
330
58
100
AcDbEntity
  8
0
100
AcDbBlockBegin
  2
DA_IMAGEDIMGROUP_1
 70
     0
 71
     0
 10
0.0
 20
0.0
 30
0.0
  3
DA_IMAGEDIMGROUP_1
  1

  0
LINE
  5
CD
330
58
100
AcDbEntity
  8
LAYER0014
 62
     2
100
AcDbLine
 10
-227.0084382823916
 20
149.343661777237
 30
0.0
 11
-227.0084382823916
 21
246.3436617772367
 31
0.0
  0
INSERT
  5
CE
330
58
100
AcDbEntity
  8
LAYER0014
 62
     2
100
AcDbBlockReference
  2
_OPEN30
 10
-227.0084382823916
 20
149.343661777237
 30
0.0
 41
6.117281464870029
 42
4.025550470965561
 50
270.0
  0
INSERT
  5
CF
330
58
100
AcDbEntity
  8
LAYER0014
 62
     2
100
AcDbBlockReference
  2
_OPEN30
 10
-227.0084382823916
 20
246.3436617772367
 30
0.0
 41
6.117281464870029
 42
4.025550470965561
 50
90.0
  0
TEXT
  5
D0
330
58
100
AcDbEntity
  8
LAYER0014
 62
     2
100
AcDbText
 10
-228.6084382823916
 20
191.4436617772368
 30
0.0
 40
8.0
  1
97
 50
90.0
 41
0.9081081081081089
  7
DAVECTORFONT
 72
     5
 11
-228.6084382823916
 21
204.2436617772368
 31
0.0
100
AcDbText
  0
ENDBLK
  5
5A
330
58
100
AcDbEntity
  8
0
100
AcDbBlockEnd
  0
BLOCK
  5
5C
330
5B
100
AcDbEntity
  8
0
100
AcDbBlockBegin
  2
_OPEN30
 70
     0
 71
     0
 10
0.0
 20
0.0
 30
0.0
  3
_OPEN30
  1

  0
LINE
  5
D1
330
5B
100
AcDbEntity
  8
0
 62
     0
100
AcDbLine
 10
0.0
 20
0.0
 30
0.0
 11
-0.9659258262890683
 21
0.2588190451025207
 31
0.0
  0
LINE
  5
D2
330
5B
100
AcDbEntity
  8
0
 62
     0
100
AcDbLine
 10
0.0
 20
0.0
 30
0.0
 11
-0.9659258262890683
 21
-0.2588190451025207
 31
0.0
  0
LINE
  5
D3
330
5B
100
AcDbEntity
  8
0
 62
     0
100
AcDbLine
 10
0.0
 20
0.0
 30
0.0
 11
-1.0
 21
0.0
 31
0.0
  0
ENDBLK
  5
5D
330
5B
100
AcDbEntity
  8
0
100
AcDbBlockEnd
  0
BLOCK
  5
5F
330
5E
100
AcDbEntity
  8
0
100
AcDbBlockBegin
  2
DA_IMAGEDIMGROUP_2
 70
     0
 71
     0
 10
0.0
 20
0.0
 30
0.0
  3
DA_IMAGEDIMGROUP_2
  1

  0
LINE
  5
D4
330
5E
100
AcDbEntity
  8
LAYER0014
 62
     2
100
AcDbLine
 10
-331.6084382823907
 20
133.3436617772371
 30
0.0
 11
-299.4084382823924
 21
133.3436617772371
 31
0.0
  0
LINE
  5
D5
330
5E
100
AcDbEntity
  8
LAYER0014
 62
     2
100
AcDbLine
 10
-331.6084382823907
 20
262.3436617772366
 30
0.0
 11
-299.4084382823924
 21
262.3436617772366
 31
0.0
  0
LINE
  5
D6
330
5E
100
AcDbEntity
  8
LAYER0014
 62
     2
100
AcDbLine
 10
-301.0084382823924
 20
133.3436617772371
 30
0.0
 11
-301.0084382823924
 21
262.3436617772366
 31
0.0
  0
INSERT
  5
D7
330
5E
100
AcDbEntity
  8
LAYER0014
 62
     2
100
AcDbBlockReference
  2
_OPEN30
 10
-301.0084382823924
 20
133.3436617772371
 30
0.0
 41
6.117281464870029
 42
4.025550470965561
 50
270.0
  0
INSERT
  5
D8
330
5E
100
AcDbEntity
  8
LAYER0014
 62
     2
100
AcDbBlockReference
  2
_OPEN30
 10
-301.0084382823924
 20
262.3436617772366
 30
0.0
 41
6.117281464870029
 42
4.025550470965561
 50
90.0
  0
TEXT
  5
D9
330
5E
100
AcDbEntity
  8
LAYER0014
 62
     2
100
AcDbText
 10
-302.6084382823925
 20
188.2436617772368
 30
0.0
 40
8.0
  1
129
 50
90.0
 41
0.9000000000000021
  7
DAVECTORFONT
 72
     5
 11
-302.6084382823925
 21
207.4436617772369
 31
0.0
100
AcDbText
  0
ENDBLK
  5
60
330
5E
100
AcDbEntity
  8
0
100
AcDbBlockEnd
  0
BLOCK
  5
62
330
61
100
AcDbEntity
  8
0
100
AcDbBlockBegin
  2
GROUP_5
 70
     0
 71
     0
 10
0.0
 20
0.0
 30
0.0
  3
GROUP_5
  1

  0
LINE
  5
DA
330
61
100
AcDbEntity
  8
0
  6
CENTER
 62
     2
100
AcDbLine
 10
-252.7284382823927
 20
270.3436617772366
 30
0.0
 11
-271.2884382823926
 21
270.3436617772366
 31
0.0
  0
ENDBLK
  5
63
330
61
100
AcDbEntity
  8
0
100
AcDbBlockEnd
  0
BLOCK
  5
65
330
64
100
AcDbEntity
  8
0
100
AcDbBlockBegin
  2
DA_IMAGEDIMGROUP_3
 70
     0
 71
     0
 10
0.0
 20
0.0
 30
0.0
  3
DA_IMAGEDIMGROUP_3
  1

  0
LINE
  5
DB
330
64
100
AcDbEntity
  8
LAYER0014
 62
     2
100
AcDbLine
 10
-273.6884382823926
 20
125.3436617772371
 30
0.0
 11
-465.6084382823921
 21
125.3436617772371
 31
0.0
  0
LINE
  5
DC
330
64
100
AcDbEntity
  8
LAYER0014
 62
     2
100
AcDbLine
 10
-273.6884382823926
 20
270.3436617772366
 30
0.0
 11
-465.6084382823921
 21
270.3436617772366
 31
0.0
  0
LINE
  5
DD
330
64
100
AcDbEntity
  8
LAYER0014
 62
     2
100
AcDbLine
 10
-464.008438282392
 20
125.3436617772371
 30
0.0
 11
-464.008438282392
 21
270.3436617772366
 31
0.0
  0
INSERT
  5
DE
330
64
100
AcDbEntity
  8
LAYER0014
 62
     2
100
AcDbBlockReference
  2
_OPEN30
 10
-464.008438282392
 20
125.3436617772371
 30
0.0
 41
6.117281464870029
 42
4.025550470965561
 50
270.0
  0
INSERT
  5
DF
330
64
100
AcDbEntity
  8
LAYER0014
 62
     2
100
AcDbBlockReference
  2
_OPEN30
 10
-464.008438282392
 20
270.3436617772366
 30
0.0
 41
6.117281464870029
 42
4.025550470965561
 50
90.0
  0
TEXT
  5
E0
330
64
100
AcDbEntity
  8
LAYER0014
 62
     2
100
AcDbText
 10
-465.6084382823921
 20
188.2436617772368
 30
0.0
 40
8.0
  1
145
 50
90.0
 41
0.8842105263157916
  7
DAVECTORFONT
 72
     5
 11
-465.6084382823921
 21
207.4436617772369
 31
0.0
100
AcDbText
  0
ENDBLK
  5
66
330
64
100
AcDbEntity
  8
0
100
AcDbBlockEnd
  0
BLOCK
  5
68
330
67
100
AcDbEntity
  8
0
100
AcDbBlockBegin
  2
DA_IMAGEDIMGROUP_4
 70
     0
 71
     0
 10
0.0
 20
0.0
 30
0.0
  3
DA_IMAGEDIMGROUP_4
  1

  0
LINE
  5
E1
330
67
100
AcDbEntity
  8
LAYER0014
 62
     2
100
AcDbLine
 10
56.39156171760715
 20
127.8436617772371
 30
0.0
 11
151.591561717608
 21
127.8436617772371
 31
0.0
  0
LINE
  5
E2
330
67
100
AcDbEntity
  8
LAYER0014
 62
     2
100
AcDbLine
 10
56.39156171760715
 20
267.8436617772362
 30
0.0
 11
151.591561717608
 21
267.8436617772362
 31
0.0
  0
LINE
  5
E3
330
67
100
AcDbEntity
  8
LAYER0014
 62
     2
100
AcDbLine
 10
149.991561717608
 20
127.8436617772371
 30
0.0
 11
149.991561717608
 21
267.8436617772362
 31
0.0
  0
INSERT
  5
E4
330
67
100
AcDbEntity
  8
LAYER0014
 62
     2
100
AcDbBlockReference
  2
_OPEN30
 10
149.991561717608
 20
127.8436617772371
 30
0.0
 41
6.117281464870029
 42
4.025550470965561
 50
270.0
  0
INSERT
  5
E5
330
67
100
AcDbEntity
  8
LAYER0014
 62
     2
100
AcDbBlockReference
  2
_OPEN30
 10
149.991561717608
 20
267.8436617772362
 30
0.0
 41
6.117281464870029
 42
4.025550470965561
 50
90.0
  0
TEXT
  5
E6
330
67
100
AcDbEntity
  8
LAYER0014
 62
     2
100
AcDbText
 10
148.391561717608
 20
188.2436617772367
 30
0.0
 40
8.0
  1
140
 50
90.0
 41
0.8842105263157889
  7
DAVECTORFONT
 72
     5
 11
148.391561717608
 21
207.4436617772367
 31
0.0
100
AcDbText
  0
ENDBLK
  5
69
330
67
100
AcDbEntity
  8
0
100
AcDbBlockEnd
  0
BLOCK
  5
6B
330
6A
100
AcDbEntity
  8
0
100
AcDbBlockBegin
  2
DA_IMAGEDIMGROUP_5
 70
     0
 71
     0
 10
0.0
 20
0.0
 30
0.0
  3
DA_IMAGEDIMGROUP_5
  1

  0
LINE
  5
E7
330
6A
100
AcDbEntity
  8
LAYER0014
 62
     2
100
AcDbLine
 10
-259.6084382823926
 20
105.3436617772368
 30
0.0
 11
169.591561717608
 21
105.3436617772368
 31
0.0
  0
LINE
  5
E8
330
6A
100
AcDbEntity
  8
LAYER0014
 62
     2
100
AcDbLine
 10
-259.6084382823926
 20
290.3436617772366
 30
0.0
 11
169.591561717608
 21
290.3436617772366
 31
0.0
  0
LINE
  5
E9
330
6A
100
AcDbEntity
  8
LAYER0014
 62
     2
100
AcDbLine
 10
167.991561717608
 20
105.3436617772368
 30
0.0
 11
167.991561717608
 21
290.3436617772366
 31
0.0
  0
INSERT
  5
EA
330
6A
100
AcDbEntity
  8
LAYER0014
 62
     2
100
AcDbBlockReference
  2
_OPEN30
 10
167.991561717608
 20
105.3436617772368
 30
0.0
 41
6.117281464870029
 42
4.025550470965561
 50
270.0
  0
INSERT
  5
EB
330
6A
100
AcDbEntity
  8
LAYER0014
 62
     2
100
AcDbBlockReference
  2
_OPEN30
 10
167.991561717608
 20
290.3436617772366
 30
0.0
 41
6.117281464870029
 42
4.025550470965561
 50
90.0
  0
TEXT
  5
EC
330
6A
100
AcDbEntity
  8
LAYER0014
 62
     2
100
AcDbText
 10
166.391561717608
 20
188.2436617772367
 30
0.0
 40
8.0
  1
185
 50
90.0
 41
0.8842105263157889
  7
DAVECTORFONT
 72
     5
 11
166.391561717608
 21
207.4436617772367
 31
0.0
100
AcDbText
  0
ENDBLK
  5
6C
330
6A
100
AcDbEntity
  8
0
100
AcDbBlockEnd
  0
BLOCK
  5
6E
330
6D
100
AcDbEntity
  8
0
100
AcDbBlockBegin
  2
DA_IMAGEDIMGROUP_6
 70
     0
 71
     0
 10
0.0
 20
0.0
 30
0.0
  3
DA_IMAGEDIMGROUP_6
  1

  0
LINE
  5
ED
330
6D
100
AcDbEntity
  8
LAYER0014
 62
     2
100
AcDbLine
 10
-270.0084382823926
 20
103.2284667277253
 30
0.0
 11
-270.0084382823926
 21
85.74366177723682
 31
0.0
  0
LINE
  5
EE
330
6D
100
AcDbEntity
  8
LAYER0014
 62
     2
100
AcDbLine
 10
-254.0084382823927
 20
103.2284667277253
 30
0.0
 11
-254.0084382823927
 21
85.74366177723682
 31
0.0
  0
LINE
  5
EF
330
6D
100
AcDbEntity
  8
LAYER0014
 62
     2
100
AcDbLine
 10
-270.0084382823926
 20
87.34366177723683
 30
0.0
 11
-254.0084382823927
 21
87.34366177723683
 31
0.0
  0
LINE
  5
F0
330
6D
100
AcDbEntity
  8
LAYER0014
 62
     2
100
AcDbLine
 10
-247.0084382823927
 20
87.34366177723683
 30
0.0
 11
-254.0084382823927
 21
87.34366177723683
 31
0.0
  0
INSERT
  5
F1
330
6D
100
AcDbEntity
  8
LAYER0014
 62
     2
100
AcDbBlockReference
  2
_OPEN30
 10
-254.0084382823927
 20
87.34366177723683
 30
0.0
 41
6.117281464870029
 42
4.025550470965561
 50
180.0
  0
LINE
  5
F2
330
6D
100
AcDbEntity
  8
LAYER0014
 62
     2
100
AcDbLine
 10
-277.0084382823926
 20
87.34366177723683
 30
0.0
 11
-270.0084382823926
 21
87.34366177723683
 31
0.0
  0
INSERT
  5
F3
330
6D
100
AcDbEntity
  8
LAYER0014
 62
     2
100
AcDbBlockReference
  2
_OPEN30
 10
-270.0084382823926
 20
87.34366177723683
 30
0.0
 41
6.117281464870029
 42
4.025550470965561
 50
360.0
  0
TEXT
  5
F4
330
6D
100
AcDbEntity
  8
LAYER0014
 62
     2
100
AcDbText
 10
-268.4084382823926
 20
88.94366177723683
 30
0.0
 40
8.0
  1
16
 41
0.9081081081081069
  7
DAVECTORFONT
 72
     5
 11
-255.6084382823927
 21
88.94366177723683
 31
0.0
100
AcDbText
  0
ENDBLK
  5
6F
330
6D
100
AcDbEntity
  8
0
100
AcDbBlockEnd
  0
BLOCK
  5
71
330
70
100
AcDbEntity
  8
0
100
AcDbBlockBegin
  2
DA_IMAGEDIMGROUP_7
 70
     0
 71
     0
 10
0.0
 20
0.0
 30
0.0
  3
DA_IMAGEDIMGROUP_7
  1

  0
LINE
  5
F5
330
70
100
AcDbEntity
  8
LAYER0014
 62
     2
100
AcDbLine
 10
-446.008438282392
 20
155.443661777237
 30
0.0
 11
-446.008438282392
 21
67.74366177723682
 31
0.0
  0
LINE
  5
F6
330
70
100
AcDbEntity
  8
LAYER0014
 62
     2
100
AcDbLine
 10
131.991561717608
 20
186.9436617772368
 30
0.0
 11
131.991561717608
 21
67.74366177723682
 31
0.0
  0
LINE
  5
F7
330
70
100
AcDbEntity
  8
LAYER0014
 62
     2
100
AcDbLine
 10
-446.008438282392
 20
69.34366177723683
 30
0.0
 11
131.991561717608
 21
69.34366177723683
 31
0.0
  0
INSERT
  5
F8
330
70
100
AcDbEntity
  8
LAYER0014
 62
     2
100
AcDbBlockReference
  2
_OPEN30
 10
-446.008438282392
 20
69.34366177723683
 30
0.0
 41
6.117281464870029
 42
4.025550470965561
 50
180.0
  0
INSERT
  5
F9
330
70
100
AcDbEntity
  8
LAYER0014
 62
     2
100
AcDbBlockReference
  2
_OPEN30
 10
131.991561717608
 20
69.34366177723683
 30
0.0
 41
6.117281464870029
 42
4.025550470965561
 50
360.0
  0
TEXT
  5
FA
330
70
100
AcDbEntity
  8
LAYER0014
 62
     2
100
AcDbText
 10
-179.408438282392
 20
70.94366177723683
 30
0.0
 40
8.0
  1
MAX:673
 41
0.9116279069767443
  7
DAVECTORFONT
 72
     5
 11
-134.608438282392
 21
70.94366177723683
 31
0.0
100
AcDbText
  0
ENDBLK
  5
72
330
70
100
AcDbEntity
  8
0
100
AcDbBlockEnd
  0
BLOCK
  5
74
330
73
100
AcDbEntity
  8
0
100
AcDbBlockBegin
  2
DA_IMAGEDIMGROUP_8
 70
     0
 71
     0
 10
0.0
 20
0.0
 30
0.0
  3
DA_IMAGEDIMGROUP_8
  1

  0
LINE
  5
FB
330
73
100
AcDbEntity
  8
LAYER0014
 62
     2
100
AcDbLine
 10
-270.0084382823926
 20
-203.6143493188147
 30
0.0
 11
-270.0084382823926
 21
-220.8143493188147
 31
0.0
  0
LINE
  5
FC
330
73
100
AcDbEntity
  8
LAYER0014
 62
     2
100
AcDbLine
 10
-254.0084382823927
 20
-203.6143493188147
 30
0.0
 11
-254.0084382823927
 21
-220.8143493188147
 31
0.0
  0
LINE
  5
FD
330
73
100
AcDbEntity
  8
LAYER0014
 62
     2
100
AcDbLine
 10
-270.0084382823926
 20
-219.2143493188147
 30
0.0
 11
-254.0084382823927
 21
-219.2143493188147
 31
0.0
  0
LINE
  5
FE
330
73
100
AcDbEntity
  8
LAYER0014
 62
     2
100
AcDbLine
 10
-298.5414365707212
 20
-219.2143493188147
 30
0.0
 11
-270.0084382823926
 21
-219.2143493188147
 31
0.0
  0
INSERT
  5
FF
330
73
100
AcDbEntity
  8
LAYER0014
 62
     2
100
AcDbBlockReference
  2
_OPEN30
 10
-270.0084382823926
 20
-219.2143493188147
 30
0.0
 41
6.117281464870029
 42
4.025550470965561
 50
360.0
  0
LINE
  5
100
330
73
100
AcDbEntity
  8
LAYER0014
 62
     2
100
AcDbLine
 10
-247.0084382823927
 20
-219.2143493188147
 30
0.0
 11
-254.0084382823927
 21
-219.2143493188147
 31
0.0
  0
INSERT
  5
101
330
73
100
AcDbEntity
  8
LAYER0014
 62
     2
100
AcDbBlockReference
  2
_OPEN30
 10
-254.0084382823927
 20
-219.2143493188147
 30
0.0
 41
6.117281464870029
 42
4.025550470965561
 50
180.0
  0
TEXT
  5
102
330
73
100
AcDbEntity
  8
LAYER0014
 62
     2
100
AcDbText
 10
-298.5414365707212
 20
-217.6143493188147
 30
0.0
 40
8.0
  1
16
 41
0.9081081081081089
  7
DAVECTORFONT
 72
     5
 11
-285.7414365707211
 21
-217.6143493188147
 31
0.0
100
AcDbText
  0
TEXT
  5
103
330
73
100
AcDbEntity
  8
LAYER0014
 62
     2
100
AcDbText
 10
-284.7414365707211
 20
-217.6143493188147
 30
0.0
 40
8.0
  1
h6
 41
0.9333333333333342
  7
DAVECTORFONT
 72
     5
 11
-271.9414365707211
 21
-217.6143493188147
 31
0.0
100
AcDbText
  0
ENDBLK
  5
75
330
73
100
AcDbEntity
  8
0
100
AcDbBlockEnd
  0
BLOCK
  5
77
330
76
100
AcDbEntity
  8
0
100
AcDbBlockBegin
  2
DA_IMAGEDIMGROUP_9
 70
     0
 71
     0
 10
0.0
 20
0.0
 30
0.0
  3
DA_IMAGEDIMGROUP_9
  1

  0
LINE
  5
104
330
76
100
AcDbEntity
  8
LAYER0014
 62
     2
100
AcDbLine
 10
-262.0084382823927
 20
-203.6143493188147
 30
0.0
 11
-262.0084382823927
 21
-238.8143493188147
 31
0.0
  0
LINE
  5
105
330
76
100
AcDbEntity
  8
LAYER0014
 62
     2
100
AcDbLine
 10
-334.0084382823916
 20
-123.614349318815
 30
0.0
 11
-334.0084382823916
 21
-238.8143493188147
 31
0.0
  0
LINE
  5
106
330
76
100
AcDbEntity
  8
LAYER0014
 62
     2
100
AcDbLine
 10
-334.0084382823916
 20
-237.2143493188147
 30
0.0
 11
-262.0084382823927
 21
-237.2143493188147
 31
0.0
  0
INSERT
  5
107
330
76
100
AcDbEntity
  8
LAYER0014
 62
     2
100
AcDbBlockReference
  2
_OPEN30
 10
-334.0084382823916
 20
-237.2143493188147
 30
0.0
 41
6.117281464870029
 42
4.025550470965561
 50
180.0
  0
INSERT
  5
108
330
76
100
AcDbEntity
  8
LAYER0014
 62
     2
100
AcDbBlockReference
  2
_OPEN30
 10
-262.0084382823927
 20
-237.2143493188147
 30
0.0
 41
6.117281464870029
 42
4.025550470965561
 50
360.0
  0
TEXT
  5
109
330
76
100
AcDbEntity
  8
LAYER0014
 62
     2
100
AcDbText
 10
-304.4084382823921
 20
-235.6143493188147
 30
0.0
 40
8.0
  1
72
 41
0.9081081081081049
  7
DAVECTORFONT
 72
     5
 11
-291.6084382823922
 21
-235.6143493188147
 31
0.0
100
AcDbText
  0
ENDBLK
  5
78
330
76
100
AcDbEntity
  8
0
100
AcDbBlockEnd
  0
BLOCK
  5
7A
330
79
100
AcDbEntity
  8
0
100
AcDbBlockBegin
  2
DA_IMAGEDIMGROUP_10
 70
     0
 71
     0
 10
0.0
 20
0.0
 30
0.0
  3
DA_IMAGEDIMGROUP_10
  1

  0
LINE
  5
10A
330
79
100
AcDbEntity
  8
LAYER0014
 62
     2
100
AcDbLine
 10
-262.0084382823927
 20
-241.2143493188147
 30
0.0
 11
-262.0084382823927
 21
-256.8143493188147
 31
0.0
  0
LINE
  5
10B
330
79
100
AcDbEntity
  8
LAYER0014
 62
     2
100
AcDbLine
 10
-446.0084382823912
 20
-195.6143493188147
 30
0.0
 11
-446.0084382823912
 21
-256.8143493188147
 31
0.0
  0
LINE
  5
10C
330
79
100
AcDbEntity
  8
LAYER0014
 62
     2
100
AcDbLine
 10
-446.0084382823912
 20
-255.2143493188147
 30
0.0
 11
-262.0084382823927
 21
-255.2143493188147
 31
0.0
  0
INSERT
  5
10D
330
79
100
AcDbEntity
  8
LAYER0014
 62
     2
100
AcDbBlockReference
  2
_OPEN30
 10
-446.0084382823912
 20
-255.2143493188147
 30
0.0
 41
6.117281464870029
 42
4.025550470965561
 50
180.0
  0
INSERT
  5
10E
330
79
100
AcDbEntity
  8
LAYER0014
 62
     2
100
AcDbBlockReference
  2
_OPEN30
 10
-262.0084382823927
 20
-255.2143493188147
 30
0.0
 41
6.117281464870029
 42
4.025550470965561
 50
360.0
  0
TEXT
  5
10F
330
79
100
AcDbEntity
  8
LAYER0014
 62
     2
100
AcDbText
 10
-363.6084382823919
 20
-253.6143493188147
 30
0.0
 40
8.0
  1
184
 41
0.8689655172413814
  7
DAVECTORFONT
 72
     5
 11
-344.4084382823919
 21
-253.6143493188147
 31
0.0
100
AcDbText
  0
ENDBLK
  5
7B
330
79
100
AcDbEntity
  8
0
100
AcDbBlockEnd
  0
BLOCK
  5
7D
330
7C
100
AcDbEntity
  8
0
100
AcDbBlockBegin
  2
DA_IMAGEDIMGROUP_11
 70
     0
 71
     0
 10
0.0
 20
0.0
 30
0.0
  3
DA_IMAGEDIMGROUP_11
  1

  0
LINE
  5
110
330
7C
100
AcDbEntity
  8
LAYER0014
 62
     2
100
AcDbLine
 10
-446.0084382823912
 20
-259.2143493188147
 30
0.0
 11
-446.0084382823912
 21
-274.8143493188147
 31
0.0
  0
LINE
  5
111
330
7C
100
AcDbEntity
  8
LAYER0014
 62
     2
100
AcDbLine
 10
-426.0084382823912
 20
-201.6479928635147
 30
0.0
 11
-426.0084382823912
 21
-274.8143493188147
 31
0.0
  0
LINE
  5
112
330
7C
100
AcDbEntity
  8
LAYER0014
 62
     2
100
AcDbLine
 10
63.99156171760798
 20
-201.6479928635147
 30
0.0
 11
63.99156171760798
 21
-274.8143493188147
 31
0.0
  0
LINE
  5
113
330
7C
100
AcDbEntity
  8
LAYER0014
 62
     2
100
AcDbLine
 10
83.99156171760798
 20
-195.6143493188147
 30
0.0
 11
83.99156171760798
 21
-274.8143493188147
 31
0.0
  0
LINE
  5
114
330
7C
100
AcDbEntity
  8
LAYER0014
 62
     2
100
AcDbLine
 10
-446.0084382823912
 20
-273.2143493188147
 30
0.0
 11
-426.0084382823912
 21
-273.2143493188147
 31
0.0
  0
INSERT
  5
115
330
7C
100
AcDbEntity
  8
LAYER0014
 62
     2
100
AcDbBlockReference
  2
_OPEN30
 10
-446.0084382823912
 20
-273.2143493188147
 30
0.0
 41
6.117281464870029
 42
4.025550470965561
 50
180.0
  0
INSERT
  5
116
330
7C
100
AcDbEntity
  8
LAYER0014
 62
     2
100
AcDbBlockReference
  2
_OPEN30
 10
-426.0084382823912
 20
-273.2143493188147
 30
0.0
 41
6.117281464870029
 42
4.025550470965561
 50
360.0
  0
LINE
  5
117
330
7C
100
AcDbEntity
  8
LAYER0014
 62
     2
100
AcDbLine
 10
-426.0084382823912
 20
-273.2143493188147
 30
0.0
 11
63.99156171760797
 21
-273.2143493188147
 31
0.0
  0
INSERT
  5
118
330
7C
100
AcDbEntity
  8
LAYER0014
 62
     2
100
AcDbBlockReference
  2
_OPEN30
 10
-426.0084382823912
 20
-273.2143493188147
 30
0.0
 41
6.117281464870029
 42
4.025550470965561
 50
180.0
  0
INSERT
  5
119
330
7C
100
AcDbEntity
  8
LAYER0014
 62
     2
100
AcDbBlockReference
  2
_OPEN30
 10
63.99156171760798
 20
-273.2143493188147
 30
0.0
 41
6.117281464870029
 42
4.025550470965561
 50
360.0
  0
LINE
  5
11A
330
7C
100
AcDbEntity
  8
LAYER0014
 62
     2
100
AcDbLine
 10
63.99156171760798
 20
-273.2143493188147
 30
0.0
 11
83.99156171760798
 21
-273.2143493188147
 31
0.0
  0
INSERT
  5
11B
330
7C
100
AcDbEntity
  8
LAYER0014
 62
     2
100
AcDbBlockReference
  2
_OPEN30
 10
63.99156171760798
 20
-273.2143493188147
 30
0.0
 41
6.117281464870029
 42
4.025550470965561
 50
180.0
  0
INSERT
  5
11C
330
7C
100
AcDbEntity
  8
LAYER0014
 62
     2
100
AcDbBlockReference
  2
_OPEN30
 10
83.99156171760798
 20
-273.2143493188147
 30
0.0
 41
6.117281464870029
 42
4.025550470965561
 50
360.0
  0
TEXT
  5
11D
330
7C
100
AcDbEntity
  8
LAYER0014
 62
     2
100
AcDbText
 10
-442.4084382823912
 20
-271.6143493188147
 30
0.0
 40
8.0
  1
20
 41
0.9081081081081049
  7
DAVECTORFONT
 72
     5
 11
-429.6084382823913
 21
-271.6143493188147
 31
0.0
100
AcDbText
  0
TEXT
  5
11E
330
7C
100
AcDbEntity
  8
LAYER0014
 62
     2
100
AcDbText
 10
-190.6084382823916
 20
-271.6143493188147
 30
0.0
 40
8.0
  1
490
 41
0.8842105263157889
  7
DAVECTORFONT
 72
     5
 11
-171.4084382823916
 21
-271.6143493188147
 31
0.0
100
AcDbText
  0
TEXT
  5
11F
330
7C
100
AcDbEntity
  8
LAYER0014
 62
     2
100
AcDbText
 10
67.59156171760797
 20
-271.6143493188147
 30
0.0
 40
8.0
  1
20
 41
0.9081081081081089
  7
DAVECTORFONT
 72
     5
 11
80.39156171760799
 21
-271.6143493188147
 31
0.0
100
AcDbText
  0
ENDBLK
  5
7E
330
7C
100
AcDbEntity
  8
0
100
AcDbBlockEnd
  0
BLOCK
  5
80
330
7F
100
AcDbEntity
  8
0
100
AcDbBlockBegin
  2
DA_IMAGEDIMGROUP_12
 70
     0
 71
     0
 10
0.0
 20
0.0
 30
0.0
  3
DA_IMAGEDIMGROUP_12
  1

  0
LINE
  5
120
330
7F
100
AcDbEntity
  8
LAYER0014
 62
     2
100
AcDbLine
 10
-446.0084382823912
 20
-277.2143493188147
 30
0.0
 11
-446.0084382823912
 21
-292.8143493188147
 31
0.0
  0
LINE
  5
121
330
7F
100
AcDbEntity
  8
LAYER0014
 62
     2
100
AcDbLine
 10
83.99156171760798
 20
-277.2143493188147
 30
0.0
 11
83.99156171760798
 21
-292.8143493188147
 31
0.0
  0
LINE
  5
122
330
7F
100
AcDbEntity
  8
LAYER0014
 62
     2
100
AcDbLine
 10
-446.0084382823912
 20
-291.2143493188147
 30
0.0
 11
83.99156171760797
 21
-291.2143493188147
 31
0.0
  0
INSERT
  5
123
330
7F
100
AcDbEntity
  8
LAYER0014
 62
     2
100
AcDbBlockReference
  2
_OPEN30
 10
-446.0084382823912
 20
-291.2143493188147
 30
0.0
 41
6.117281464870029
 42
4.025550470965561
 50
180.0
  0
INSERT
  5
124
330
7F
100
AcDbEntity
  8
LAYER0014
 62
     2
100
AcDbBlockReference
  2
_OPEN30
 10
83.99156171760798
 20
-291.2143493188147
 30
0.0
 41
6.117281464870029
 42
4.025550470965561
 50
360.0
  0
TEXT
  5
125
330
7F
100
AcDbEntity
  8
LAYER0014
 62
     2
100
AcDbText
 10
-190.6084382823916
 20
-289.6143493188147
 30
0.0
 40
8.0
  1
530
 41
0.8842105263157889
  7
DAVECTORFONT
 72
     5
 11
-171.4084382823916
 21
-289.6143493188147
 31
0.0
100
AcDbText
  0
ENDBLK
  5
81
330
7F
100
AcDbEntity
  8
0
100
AcDbBlockEnd
  0
BLOCK
  5
83
330
82
100
AcDbEntity
  8
0
100
AcDbBlockBegin
  2
DA_IMAGEDIMGROUP_13
 70
     0
 71
     0
 10
0.0
 20
0.0
 30
0.0
  3
DA_IMAGEDIMGROUP_13
  1

  0
LINE
  5
126
330
82
100
AcDbEntity
  8
LAYER0014
 62
     2
100
AcDbLine
 10
-446.0084382823912
 20
-295.2143493188147
 30
0.0
 11
-446.0084382823912
 21
-310.8143493188147
 31
0.0
  0
LINE
  5
127
330
82
100
AcDbEntity
  8
LAYER0014
 62
     2
100
AcDbLine
 10
181.9915617176089
 20
-209.6143493188151
 30
0.0
 11
181.9915617176089
 21
-310.8143493188147
 31
0.0
  0
LINE
  5
128
330
82
100
AcDbEntity
  8
LAYER0014
 62
     2
100
AcDbLine
 10
-446.0084382823912
 20
-309.2143493188147
 30
0.0
 11
181.9915617176089
 21
-309.2143493188147
 31
0.0
  0
INSERT
  5
129
330
82
100
AcDbEntity
  8
LAYER0014
 62
     2
100
AcDbBlockReference
  2
_OPEN30
 10
-446.0084382823912
 20
-309.2143493188147
 30
0.0
 41
6.117281464870029
 42
4.025550470965561
 50
180.0
  0
INSERT
  5
12A
330
82
100
AcDbEntity
  8
LAYER0014
 62
     2
100
AcDbBlockReference
  2
_OPEN30
 10
181.9915617176089
 20
-309.2143493188147
 30
0.0
 41
6.117281464870029
 42
4.025550470965561
 50
360.0
  0
TEXT
  5
12B
330
82
100
AcDbEntity
  8
LAYER0014
 62
     2
100
AcDbText
 10
-153.6584382823918
 20
-307.6143493188147
 30
0.0
 40
8.0
  1
MAX:723
 41
0.9116279069767443
  7
DAVECTORFONT
 72
     5
 11
-108.8584382823918
 21
-307.6143493188147
 31
0.0
100
AcDbText
  0
ENDBLK
  5
84
330
82
100
AcDbEntity
  8
0
100
AcDbBlockEnd
  0
BLOCK
  5
86
330
85
100
AcDbEntity
  8
0
100
AcDbBlockBegin
  2
DA_IMAGEDIMGROUP_14
 70
     0
 71
     0
 10
0.0
 20
0.0
 30
0.0
  3
DA_IMAGEDIMGROUP_14
  1

  0
LINE
  5
12C
330
85
100
AcDbEntity
  8
LAYER0014
 62
     2
100
AcDbLine
 10
-349.0084382823915
 20
-73.81434931881509
 30
0.0
 11
-349.0084382823915
 21
-55.6143493188151
 31
0.0
  0
LINE
  5
12D
330
85
100
AcDbEntity
  8
LAYER0014
 62
     2
100
AcDbLine
 10
-334.0084382823916
 20
-72.81434931881509
 30
0.0
 11
-334.0084382823916
 21
-55.6143493188151
 31
0.0
  0
LINE
  5
12E
330
85
100
AcDbEntity
  8
LAYER0014
 62
     2
100
AcDbLine
 10
-349.0084382823915
 20
-57.2143493188151
 30
0.0
 11
-334.0084382823916
 21
-57.2143493188151
 31
0.0
  0
LINE
  5
12F
330
85
100
AcDbEntity
  8
LAYER0014
 62
     2
100
AcDbLine
 10
-327.0084382823916
 20
-57.2143493188151
 30
0.0
 11
-334.0084382823916
 21
-57.2143493188151
 31
0.0
  0
INSERT
  5
130
330
85
100
AcDbEntity
  8
LAYER0014
 62
     2
100
AcDbBlockReference
  2
_OPEN30
 10
-334.0084382823916
 20
-57.2143493188151
 30
0.0
 41
6.117281464870029
 42
4.025550470965561
 50
180.0
  0
LINE
  5
131
330
85
100
AcDbEntity
  8
LAYER0014
 62
     2
100
AcDbLine
 10
-356.0084382823915
 20
-57.2143493188151
 30
0.0
 11
-349.0084382823915
 21
-57.2143493188151
 31
0.0
  0
INSERT
  5
132
330
85
100
AcDbEntity
  8
LAYER0014
 62
     2
100
AcDbBlockReference
  2
_OPEN30
 10
-349.0084382823915
 20
-57.2143493188151
 30
0.0
 41
6.117281464870029
 42
4.025550470965561
 50
360.0
  0
TEXT
  5
133
330
85
100
AcDbEntity
  8
LAYER0014
 62
     2
100
AcDbText
 10
-347.9084382823915
 20
-55.6143493188151
 30
0.0
 40
8.0
  1
15
 41
0.9081081081081049
  7
DAVECTORFONT
 72
     5
 11
-335.1084382823916
 21
-55.6143493188151
 31
0.0
100
AcDbText
  0
ENDBLK
  5
87
330
85
100
AcDbEntity
  8
0
100
AcDbBlockEnd
  0
BLOCK
  5
89
330
88
100
AcDbEntity
  8
0
100
AcDbBlockBegin
  2
DA_IMAGEDIMGROUP_15
 70
     0
 71
     0
 10
0.0
 20
0.0
 30
0.0
  3
DA_IMAGEDIMGROUP_15
  1

  0
LINE
  5
134
330
88
100
AcDbEntity
  8
LAYER0014
 62
     2
100
AcDbLine
 10
-446.0084382823912
 20
-169.8143493188148
 30
0.0
 11
-446.0084382823912
 21
-37.6143493188151
 31
0.0
  0
LINE
  5
135
330
88
100
AcDbEntity
  8
LAYER0014
 62
     2
100
AcDbLine
 10
-334.0084382823916
 20
-53.2143493188151
 30
0.0
 11
-334.0084382823916
 21
-37.6143493188151
 31
0.0
  0
LINE
  5
136
330
88
100
AcDbEntity
  8
LAYER0014
 62
     2
100
AcDbLine
 10
-209.0084382823916
 20
-72.51434931881508
 30
0.0
 11
-209.0084382823916
 21
-37.6143493188151
 31
0.0
  0
LINE
  5
137
330
88
100
AcDbEntity
  8
LAYER0014
 62
     2
100
AcDbLine
 10
131.9915617176089
 20
-96.31434931881543
 30
0.0
 11
131.9915617176089
 21
-37.6143493188151
 31
0.0
  0
LINE
  5
138
330
88
100
AcDbEntity
  8
LAYER0014
 62
     2
100
AcDbLine
 10
181.9915617176089
 20
-204.8143493188151
 30
0.0
 11
181.9915617176089
 21
-37.6143493188151
 31
0.0
  0
LINE
  5
139
330
88
100
AcDbEntity
  8
LAYER0014
 62
     2
100
AcDbLine
 10
-446.0084382823912
 20
-39.2143493188151
 30
0.0
 11
-334.0084382823916
 21
-39.2143493188151
 31
0.0
  0
INSERT
  5
13A
330
88
100
AcDbEntity
  8
LAYER0014
 62
     2
100
AcDbBlockReference
  2
_OPEN30
 10
-446.0084382823912
 20
-39.2143493188151
 30
0.0
 41
6.117281464870029
 42
4.025550470965561
 50
180.0
  0
INSERT
  5
13B
330
88
100
AcDbEntity
  8
LAYER0014
 62
     2
100
AcDbBlockReference
  2
_OPEN30
 10
-334.0084382823916
 20
-39.2143493188151
 30
0.0
 41
6.117281464870029
 42
4.025550470965561
 50
360.0
  0
LINE
  5
13C
330
88
100
AcDbEntity
  8
LAYER0014
 62
     2
100
AcDbLine
 10
-334.0084382823916
 20
-39.2143493188151
 30
0.0
 11
-209.0084382823916
 21
-39.2143493188151
 31
0.0
  0
INSERT
  5
13D
330
88
100
AcDbEntity
  8
LAYER0014
 62
     2
100
AcDbBlockReference
  2
_OPEN30
 10
-334.0084382823916
 20
-39.2143493188151
 30
0.0
 41
6.117281464870029
 42
4.025550470965561
 50
180.0
  0
INSERT
  5
13E
330
88
100
AcDbEntity
  8
LAYER0014
 62
     2
100
AcDbBlockReference
  2
_OPEN30
 10
-209.0084382823916
 20
-39.2143493188151
 30
0.0
 41
6.117281464870029
 42
4.025550470965561
 50
360.0
  0
LINE
  5
13F
330
88
100
AcDbEntity
  8
LAYER0014
 62
     2
100
AcDbLine
 10
-209.0084382823916
 20
-39.2143493188151
 30
0.0
 11
131.9915617176089
 21
-39.2143493188151
 31
0.0
  0
INSERT
  5
140
330
88
100
AcDbEntity
  8
LAYER0014
 62
     2
100
AcDbBlockReference
  2
_OPEN30
 10
-209.0084382823916
 20
-39.2143493188151
 30
0.0
 41
6.117281464870029
 42
4.025550470965561
 50
180.0
  0
INSERT
  5
141
330
88
100
AcDbEntity
  8
LAYER0014
 62
     2
100
AcDbBlockReference
  2
_OPEN30
 10
131.9915617176089
 20
-39.2143493188151
 30
0.0
 41
6.117281464870029
 42
4.025550470965561
 50
360.0
  0
LINE
  5
142
330
88
100
AcDbEntity
  8
LAYER0014
 62
     2
100
AcDbLine
 10
131.9915617176089
 20
-39.2143493188151
 30
0.0
 11
181.9915617176089
 21
-39.2143493188151
 31
0.0
  0
INSERT
  5
143
330
88
100
AcDbEntity
  8
LAYER0014
 62
     2
100
AcDbBlockReference
  2
_OPEN30
 10
131.9915617176089
 20
-39.2143493188151
 30
0.0
 41
6.117281464870029
 42
4.025550470965561
 50
180.0
  0
INSERT
  5
144
330
88
100
AcDbEntity
  8
LAYER0014
 62
     2
100
AcDbBlockReference
  2
_OPEN30
 10
181.9915617176089
 20
-39.2143493188151
 30
0.0
 41
6.117281464870029
 42
4.025550470965561
 50
360.0
  0
TEXT
  5
145
330
88
100
AcDbEntity
  8
LAYER0014
 62
     2
100
AcDbText
 10
-399.6084382823914
 20
-37.6143493188151
 30
0.0
 40
8.0
  1
112
 41
0.8842105263157916
  7
DAVECTORFONT
 72
     5
 11
-380.4084382823914
 21
-37.6143493188151
 31
0.0
100
AcDbText
  0
TEXT
  5
146
330
88
100
AcDbEntity
  8
LAYER0014
 62
     2
100
AcDbText
 10
-287.5084382823916
 20
-37.6143493188151
 30
0.0
 40
8.0
  1
0～220
 41
0.8842105263157895
  7
DAVECTORFONT
 72
     5
 11
-255.5084382823916
 21
-37.6143493188151
 31
0.0
100
AcDbText
  0
TEXT
  5
147
330
88
100
AcDbEntity
  8
LAYER0014
 62
     2
100
AcDbText
 10
-48.10843828239135
 20
-37.6143493188151
 30
0.0
 40
8.0
  1
341
 41
0.9882352941176473
  7
DAVECTORFONT
 72
     5
 11
-28.90843828239135
 21
-37.6143493188151
 31
0.0
100
AcDbText
  0
TEXT
  5
148
330
88
100
AcDbEntity
  8
LAYER0014
 62
     2
100
AcDbText
 10
151.3415617176083
 20
-37.6143493188151
 30
0.0
 40
8.0
  1
50
 41
0.9081081081081089
  7
DAVECTORFONT
 72
     5
 11
164.1415617176083
 21
-37.6143493188151
 31
0.0
100
AcDbText
  0
ENDBLK
  5
8A
330
88
100
AcDbEntity
  8
0
100
AcDbBlockEnd
  0
BLOCK
  5
8C
330
8B
100
AcDbEntity
  8
0
100
AcDbBlockBegin
  2
DA_IMAGEDIMGROUP_16
 70
     0
 71
     0
 10
0.0
 20
0.0
 30
0.0
  3
DA_IMAGEDIMGROUP_16
  1

  0
LINE
  5
149
330
8B
100
AcDbEntity
  8
LAYER0014
 62
     2
100
AcDbLine
 10
-448.4084382823912
 20
-193.2143493188147
 30
0.0
 11
-465.6084382823913
 21
-193.2143493188147
 31
0.0
  0
LINE
  5
14A
330
8B
100
AcDbEntity
  8
LAYER0014
 62
     2
100
AcDbLine
 10
-350.4084382823916
 20
-75.2143493188151
 30
0.0
 11
-465.6084382823913
 21
-75.2143493188151
 31
0.0
  0
LINE
  5
14B
330
8B
100
AcDbEntity
  8
LAYER0014
 62
     2
100
AcDbLine
 10
-464.0084382823912
 20
-193.2143493188147
 30
0.0
 11
-464.0084382823912
 21
-75.2143493188151
 31
0.0
  0
INSERT
  5
14C
330
8B
100
AcDbEntity
  8
LAYER0014
 62
     2
100
AcDbBlockReference
  2
_OPEN30
 10
-464.0084382823912
 20
-193.2143493188147
 30
0.0
 41
6.117281464870029
 42
4.025550470965561
 50
270.0
  0
INSERT
  5
14D
330
8B
100
AcDbEntity
  8
LAYER0014
 62
     2
100
AcDbBlockReference
  2
_OPEN30
 10
-464.0084382823912
 20
-75.2143493188151
 30
0.0
 41
6.117281464870029
 42
4.025550470965561
 50
90.0
  0
TEXT
  5
14E
330
8B
100
AcDbEntity
  8
LAYER0014
 62
     2
100
AcDbText
 10
-465.6084382823913
 20
-143.8143493188149
 30
0.0
 40
8.0
  1
118
 50
90.0
 41
0.8842105263157916
  7
DAVECTORFONT
 72
     5
 11
-465.6084382823913
 21
-124.6143493188149
 31
0.0
100
AcDbText
  0
ENDBLK
  5
8D
330
8B
100
AcDbEntity
  8
0
100
AcDbBlockEnd
  0
BLOCK
  5
8F
330
8E
100
AcDbEntity
  8
0
100
AcDbBlockBegin
  2
DA_IMAGEDIMGROUP_17
 70
     0
 71
     0
 10
0.0
 20
0.0
 30
0.0
  3
DA_IMAGEDIMGROUP_17
  1

  0
LINE
  5
14F
330
8E
100
AcDbEntity
  8
LAYER0014
 62
     2
100
AcDbLine
 10
-251.6084382823927
 20
-201.2143493188147
 30
0.0
 11
-227.8207544934516
 21
-201.2143493188147
 31
0.0
  0
LINE
  5
150
330
8E
100
AcDbEntity
  8
LAYER0014
 62
     2
100
AcDbLine
 10
-229.4207544934516
 20
-201.2143493188147
 30
0.0
 11
-229.4207544934516
 21
-193.2143493188147
 31
0.0
  0
LINE
  5
151
330
8E
100
AcDbEntity
  8
LAYER0014
 62
     2
100
AcDbLine
 10
-331.6084382823916
 20
-75.2143493188151
 30
0.0
 11
-227.8207544934516
 21
-75.2143493188151
 31
0.0
  0
LINE
  5
152
330
8E
100
AcDbEntity
  8
LAYER0014
 62
     2
100
AcDbLine
 10
-229.4207544934516
 20
-213.5231893188147
 30
0.0
 11
-229.4207544934516
 21
-201.2143493188147
 31
0.0
  0
INSERT
  5
153
330
8E
100
AcDbEntity
  8
LAYER0014
 62
     2
100
AcDbBlockReference
  2
_OPEN30
 10
-229.4207544934516
 20
-201.2143493188147
 30
0.0
 41
6.117281464870029
 42
4.025550470965561
 50
90.0
  0
LINE
  5
154
330
8E
100
AcDbEntity
  8
LAYER0014
 62
     2
100
AcDbLine
 10
-229.4207544934516
 20
-193.2143493188147
 30
0.0
 11
-229.4207544934516
 21
-121.214349318815
 31
0.0
  0
INSERT
  5
155
330
8E
100
AcDbEntity
  8
LAYER0014
 62
     2
100
AcDbBlockReference
  2
_OPEN30
 10
-229.4207544934516
 20
-193.2143493188147
 30
0.0
 41
6.117281464870029
 42
4.025550470965561
 50
270.0
  0
INSERT
  5
156
330
8E
100
AcDbEntity
  8
LAYER0014
 62
     2
100
AcDbBlockReference
  2
_OPEN30
 10
-229.4207544934516
 20
-121.214349318815
 30
0.0
 41
6.117281464870029
 42
4.025550470965561
 50
90.0
  0
LINE
  5
157
330
8E
100
AcDbEntity
  8
LAYER0014
 62
     2
100
AcDbLine
 10
-229.4207544934516
 20
-121.214349318815
 30
0.0
 11
-229.4207544934516
 21
-75.2143493188151
 31
0.0
  0
INSERT
  5
158
330
8E
100
AcDbEntity
  8
LAYER0014
 62
     2
100
AcDbBlockReference
  2
_OPEN30
 10
-229.4207544934516
 20
-121.214349318815
 30
0.0
 41
6.117281464870029
 42
4.025550470965561
 50
270.0
  0
INSERT
  5
159
330
8E
100
AcDbEntity
  8
LAYER0014
 62
     2
100
AcDbBlockReference
  2
_OPEN30
 10
-229.4207544934516
 20
-75.2143493188151
 30
0.0
 41
6.117281464870029
 42
4.025550470965561
 50
90.0
  0
TEXT
  5
15A
330
8E
100
AcDbEntity
  8
LAYER0014
 62
     2
100
AcDbText
 10
-231.0207544934516
 20
-213.5231893188147
 30
0.0
 40
8.0
  1
8
 50
90.0
 41
0.9882352941176479
  7
DAVECTORFONT
 72
     5
 11
-231.0207544934516
 21
-207.1231893188147
 31
0.0
100
AcDbText
  0
TEXT
  5
15B
330
8E
100
AcDbEntity
  8
LAYER0014
 62
     2
100
AcDbText
 10
-231.0207544934516
 20
-166.8143493188148
 30
0.0
 40
8.0
  1
72
 50
90.0
 41
0.9081081081081089
  7
DAVECTORFONT
 72
     5
 11
-231.0207544934516
 21
-154.0143493188148
 31
0.0
100
AcDbText
  0
TEXT
  5
15C
330
8E
100
AcDbEntity
  8
LAYER0014
 62
     2
100
AcDbText
 10
-231.0207544934516
 20
-104.614349318815
 30
0.0
 40
8.0
  1
46
 50
90.0
 41
0.9081081081081089
  7
DAVECTORFONT
 72
     5
 11
-231.0207544934516
 21
-91.81434931881502
 31
0.0
100
AcDbText
  0
ENDBLK
  5
90
330
8E
100
AcDbEntity
  8
0
100
AcDbBlockEnd
  0
BLOCK
  5
92
330
91
100
AcDbEntity
  8
0
100
AcDbBlockBegin
  2
DA_IMAGEDIMGROUP_18
 70
     0
 71
     0
 10
0.0
 20
0.0
 30
0.0
  3
DA_IMAGEDIMGROUP_18
  1

  0
LINE
  5
15D
330
91
100
AcDbEntity
  8
LAYER0014
 62
     2
100
AcDbLine
 10
86.39156171760799
 20
-193.2143493188147
 30
0.0
 11
201.5915617176089
 21
-193.2143493188147
 31
0.0
  0
LINE
  5
15E
330
91
100
AcDbEntity
  8
LAYER0014
 62
     2
100
AcDbLine
 10
134.3915617176089
 20
-107.214349318815
 30
0.0
 11
201.5915617176089
 21
-107.214349318815
 31
0.0
  0
LINE
  5
15F
330
91
100
AcDbEntity
  8
LAYER0014
 62
     2
100
AcDbLine
 10
199.9915617176089
 20
-193.2143493188147
 30
0.0
 11
199.9915617176089
 21
-107.214349318815
 31
0.0
  0
INSERT
  5
160
330
91
100
AcDbEntity
  8
LAYER0014
 62
     2
100
AcDbBlockReference
  2
_OPEN30
 10
199.9915617176089
 20
-193.2143493188147
 30
0.0
 41
6.117281464870029
 42
4.025550470965561
 50
270.0
  0
INSERT
  5
161
330
91
100
AcDbEntity
  8
LAYER0014
 62
     2
100
AcDbBlockReference
  2
_OPEN30
 10
199.9915617176089
 20
-107.214349318815
 30
0.0
 41
6.117281464870029
 42
4.025550470965561
 50
90.0
  0
TEXT
  5
162
330
91
100
AcDbEntity
  8
LAYER0014
 62
     2
100
AcDbText
 10
198.3915617176089
 20
-156.6143493188149
 30
0.0
 40
8.0
  1
86
 50
90.0
 41
0.9081081081081089
  7
DAVECTORFONT
 72
     5
 11
198.3915617176089
 21
-143.8143493188149
 31
0.0
100
AcDbText
  0
ENDBLK
  5
93
330
91
100
AcDbEntity
  8
0
100
AcDbBlockEnd
  0
BLOCK
  5
95
330
94
100
AcDbEntity
  8
0
100
AcDbBlockBegin
  2
DA_IMAGEDIMGROUP_19
 70
     0
 71
     0
 10
0.0
 20
0.0
 30
0.0
  3
DA_IMAGEDIMGROUP_19
  1

  0
LINE
  5
163
330
94
100
AcDbEntity
  8
LAYER0014
 62
     2
100
AcDbLine
 10
184.3915617176089
 20
-207.2143493188151
 30
0.0
 11
219.5915617176089
 21
-207.2143493188151
 31
0.0
  0
LINE
  5
164
330
94
100
AcDbEntity
  8
LAYER0014
 62
     2
100
AcDbLine
 10
203.9915617176089
 20
-107.214349318815
 30
0.0
 11
219.5915617176089
 21
-107.214349318815
 31
0.0
  0
LINE
  5
165
330
94
100
AcDbEntity
  8
LAYER0014
 62
     2
100
AcDbLine
 10
217.9915617176089
 20
-207.2143493188151
 30
0.0
 11
217.9915617176089
 21
-107.214349318815
 31
0.0
  0
INSERT
  5
166
330
94
100
AcDbEntity
  8
LAYER0014
 62
     2
100
AcDbBlockReference
  2
_OPEN30
 10
217.9915617176089
 20
-207.2143493188151
 30
0.0
 41
6.117281464870029
 42
4.025550470965561
 50
270.0
  0
INSERT
  5
167
330
94
100
AcDbEntity
  8
LAYER0014
 62
     2
100
AcDbBlockReference
  2
_OPEN30
 10
217.9915617176089
 20
-107.214349318815
 30
0.0
 41
6.117281464870029
 42
4.025550470965561
 50
90.0
  0
TEXT
  5
168
330
94
100
AcDbEntity
  8
LAYER0014
 62
     2
100
AcDbText
 10
216.3915617176089
 20
-166.814349318815
 30
0.0
 40
8.0
  1
100
 50
90.0
 41
0.8842105263157889
  7
DAVECTORFONT
 72
     5
 11
216.3915617176089
 21
-147.614349318815
 31
0.0
100
AcDbText
  0
ENDBLK
  5
96
330
94
100
AcDbEntity
  8
0
100
AcDbBlockEnd
  0
BLOCK
  5
98
330
97
100
AcDbEntity
  8
0
100
AcDbBlockBegin
  2
DA_IMAGEDIMGROUP_20
 70
     0
 71
     0
 10
0.0
 20
0.0
 30
0.0
  3
DA_IMAGEDIMGROUP_20
  1

  0
LINE
  5
169
330
97
100
AcDbEntity
  8
LAYER0014
 62
     2
100
AcDbLine
 10
331.9169794323483
 20
-237.2143493188147
 30
0.0
 11
457.9169794323483
 21
-237.2143493188147
 31
0.0
  0
INSERT
  5
16A
330
97
100
AcDbEntity
  8
LAYER0014
 62
     2
100
AcDbBlockReference
  2
_OPEN30
 10
331.9169794323483
 20
-237.2143493188147
 30
0.0
 41
6.117281464870029
 42
4.025550470965561
 50
180.0
  0
INSERT
  5
16B
330
97
100
AcDbEntity
  8
LAYER0014
 62
     2
100
AcDbBlockReference
  2
_OPEN30
 10
457.9169794323483
 20
-237.2143493188147
 30
0.0
 41
6.117281464870029
 42
4.025550470965561
 50
360.0
  0
LINE
  5
16C
330
97
100
AcDbEntity
  8
LAYER0014
 62
     2
100
AcDbLine
 10
331.9169794323483
 20
-203.6143493188147
 30
0.0
 11
331.9169794323483
 21
-238.8143493188147
 31
0.0
  0
LINE
  5
16D
330
97
100
AcDbEntity
  8
LAYER0014
 62
     2
100
AcDbLine
 10
457.9169794323483
 20
-203.6143493188147
 30
0.0
 11
457.9169794323483
 21
-238.8143493188147
 31
0.0
  0
TEXT
  5
16E
330
97
100
AcDbEntity
  8
LAYER0014
 62
     2
100
AcDbText
 10
385.3169794323483
 20
-235.6143493188147
 30
0.0
 40
8.0
  1
126
 41
0.8842105263157916
  7
DAVECTORFONT
 72
     5
 11
404.5169794323484
 21
-235.6143493188147
 31
0.0
100
AcDbText
  0
ENDBLK
  5
99
330
97
100
AcDbEntity
  8
0
100
AcDbBlockEnd
  0
BLOCK
  5
9B
330
9A
100
AcDbEntity
  8
0
100
AcDbBlockBegin
  2
GROUP_6
 70
     0
 71
     0
 10
0.0
 20
0.0
 30
0.0
  3
GROUP_6
  1

  0
LINE
  5
16F
330
9A
100
AcDbEntity
  8
0
  6
CENTER
 62
     7
100
AcDbLine
 10
287.6310437109723
 20
305.9545049063336
 30
0.0
 11
252.8310437109723
 21
305.9545049063336
 31
0.0
  0
LINE
  5
170
330
9A
100
AcDbEntity
  8
0
  6
CENTER
 62
     2
100
AcDbLine
 10
270.2310437109723
 20
323.3545049063336
 30
0.0
 11
270.2310437109723
 21
288.5545049063336
 31
0.0
  0
ENDBLK
  5
9C
330
9A
100
AcDbEntity
  8
0
100
AcDbBlockEnd
  0
BLOCK
  5
9E
330
9D
100
AcDbEntity
  8
0
100
AcDbBlockBegin
  2
DA_IMAGEDIMGROUP_21
 70
     0
 71
     0
 10
0.0
 20
0.0
 30
0.0
  3
DA_IMAGEDIMGROUP_21
  1

  0
LINE
  5
171
330
9D
100
AcDbEntity
  8
LAYER0014
 62
     2
100
AcDbLine
 10
310.2310437109724
 20
287.9545049063336
 30
0.0
 11
310.2310437109724
 21
266.4545049063336
 31
0.0
  0
LINE
  5
172
330
9D
100
AcDbEntity
  8
LAYER0014
 62
     2
100
AcDbLine
 10
330.2310437109724
 20
291.9546294855925
 30
0.0
 11
330.2310437109724
 21
266.4545049063336
 31
0.0
  0
LINE
  5
173
330
9D
100
AcDbEntity
  8
LAYER0014
 62
     2
100
AcDbLine
 10
310.2310437109724
 20
268.4545049063336
 30
0.0
 11
330.2310437109724
 21
268.4545049063336
 31
0.0
  0
LINE
  5
174
330
9D
100
AcDbEntity
  8
LAYER0014
 62
     2
100
AcDbLine
 10
338.9810437109724
 20
268.4545049063336
 30
0.0
 11
330.2310437109724
 21
268.4545049063336
 31
0.0
  0
INSERT
  5
175
330
9D
100
AcDbEntity
  8
LAYER0014
 62
     2
100
AcDbBlockReference
  2
_OPEN30
 10
330.2310437109724
 20
268.4545049063336
 30
0.0
 41
6.117281464870029
 42
4.025550470965561
 50
180.0
  0
LINE
  5
176
330
9D
100
AcDbEntity
  8
LAYER0014
 62
     2
100
AcDbLine
 10
301.4810437109724
 20
268.4545049063336
 30
0.0
 11
310.2310437109724
 21
268.4545049063336
 31
0.0
  0
INSERT
  5
177
330
9D
100
AcDbEntity
  8
LAYER0014
 62
     2
100
AcDbBlockReference
  2
_OPEN30
 10
310.2310437109724
 20
268.4545049063336
 30
0.0
 41
6.117281464870029
 42
4.025550470965561
 50
360.0
  0
TEXT
  5
178
330
9D
100
AcDbEntity
  8
LAYER0014
 62
     2
100
AcDbText
 10
313.8310437109724
 20
270.4545049063336
 30
0.0
 40
8.0
  1
20
 41
0.9081081081081049
  7
DAVECTORFONT
 72
     5
 11
326.6310437109723
 21
270.4545049063336
 31
0.0
100
AcDbText
  0
ENDBLK
  5
9F
330
9D
100
AcDbEntity
  8
0
100
AcDbBlockEnd
  0
BLOCK
  5
A1
330
A0
100
AcDbEntity
  8
0
100
AcDbBlockBegin
  2
DA_IMAGEDIMGROUP_22
 70
     0
 71
     0
 10
0.0
 20
0.0
 30
0.0
  3
DA_IMAGEDIMGROUP_22
  1

  0
LINE
  5
179
330
A0
100
AcDbEntity
  8
LAYER0014
 62
     2
100
AcDbLine
 10
495.2310437109725
 20
292.4545049063336
 30
0.0
 11
495.2310437109725
 21
266.4545049063336
 31
0.0
  0
LINE
  5
17A
330
A0
100
AcDbEntity
  8
LAYER0014
 62
     2
100
AcDbLine
 10
520.2310437109724
 20
293.9545049063336
 30
0.0
 11
520.2310437109724
 21
266.4545049063336
 31
0.0
  0
LINE
  5
17B
330
A0
100
AcDbEntity
  8
LAYER0014
 62
     2
100
AcDbLine
 10
495.2310437109725
 20
268.4545049063336
 30
0.0
 11
520.2310437109724
 21
268.4545049063336
 31
0.0
  0
LINE
  5
17C
330
A0
100
AcDbEntity
  8
LAYER0014
 62
     2
100
AcDbLine
 10
528.9810437109724
 20
268.4545049063336
 30
0.0
 11
520.2310437109724
 21
268.4545049063336
 31
0.0
  0
INSERT
  5
17D
330
A0
100
AcDbEntity
  8
LAYER0014
 62
     2
100
AcDbBlockReference
  2
_OPEN30
 10
520.2310437109724
 20
268.4545049063336
 30
0.0
 41
6.117281464870029
 42
4.025550470965561
 50
180.0
  0
LINE
  5
17E
330
A0
100
AcDbEntity
  8
LAYER0014
 62
     2
100
AcDbLine
 10
486.4810437109725
 20
268.4545049063336
 30
0.0
 11
495.2310437109725
 21
268.4545049063336
 31
0.0
  0
INSERT
  5
17F
330
A0
100
AcDbEntity
  8
LAYER0014
 62
     2
100
AcDbBlockReference
  2
_OPEN30
 10
495.2310437109725
 20
268.4545049063336
 30
0.0
 41
6.117281464870029
 42
4.025550470965561
 50
360.0
  0
TEXT
  5
180
330
A0
100
AcDbEntity
  8
LAYER0014
 62
     2
100
AcDbText
 10
501.3310437109724
 20
270.4545049063336
 30
0.0
 40
8.0
  1
25
 41
0.9081081081081049
  7
DAVECTORFONT
 72
     5
 11
514.1310437109723
 21
270.4545049063336
 31
0.0
100
AcDbText
  0
ENDBLK
  5
A2
330
A0
100
AcDbEntity
  8
0
100
AcDbBlockEnd
  0
BLOCK
  5
A4
330
A3
100
AcDbEntity
  8
0
100
AcDbBlockBegin
  2
DA_IMAGEDIMGROUP_23
 70
     0
 71
     0
 10
0.0
 20
0.0
 30
0.0
  3
DA_IMAGEDIMGROUP_23
  1

  0
LINE
  5
181
330
A3
100
AcDbEntity
  8
LAYER0014
 62
     2
100
AcDbLine
 10
310.2310437109724
 20
263.4545049063336
 30
0.0
 11
310.2310437109724
 21
243.9545049063336
 31
0.0
  0
LINE
  5
182
330
A3
100
AcDbEntity
  8
LAYER0014
 62
     2
100
AcDbLine
 10
520.2310437109724
 20
263.4545049063336
 30
0.0
 11
520.2310437109724
 21
243.9545049063336
 31
0.0
  0
LINE
  5
183
330
A3
100
AcDbEntity
  8
LAYER0014
 62
     2
100
AcDbLine
 10
310.2310437109724
 20
245.9545049063336
 30
0.0
 11
520.2310437109724
 21
245.9545049063336
 31
0.0
  0
INSERT
  5
184
330
A3
100
AcDbEntity
  8
LAYER0014
 62
     2
100
AcDbBlockReference
  2
_OPEN30
 10
310.2310437109724
 20
245.9545049063336
 30
0.0
 41
6.117281464870029
 42
4.025550470965561
 50
180.0
  0
INSERT
  5
185
330
A3
100
AcDbEntity
  8
LAYER0014
 62
     2
100
AcDbBlockReference
  2
_OPEN30
 10
520.2310437109724
 20
245.9545049063336
 30
0.0
 41
6.117281464870029
 42
4.025550470965561
 50
360.0
  0
TEXT
  5
186
330
A3
100
AcDbEntity
  8
LAYER0014
 62
     2
100
AcDbText
 10
405.6310437109724
 20
247.9545049063336
 30
0.0
 40
8.0
  1
210
 41
0.8842105263157916
  7
DAVECTORFONT
 72
     5
 11
424.8310437109724
 21
247.9545049063336
 31
0.0
100
AcDbText
  0
ENDBLK
  5
A5
330
A3
100
AcDbEntity
  8
0
100
AcDbBlockEnd
  0
BLOCK
  5
A7
330
A6
100
AcDbEntity
  8
0
100
AcDbBlockBegin
  2
GROUP_7
 70
     0
 71
     0
 10
0.0
 20
0.0
 30
0.0
  3
GROUP_7
  1

  0
TEXT
  5
188
330
A6
100
AcDbEntity
  8
LAYER0013
 62
     2
100
AcDbText
 10
359.2310437109724
 20
217.7600356824264
 30
0.0
 40
10.0
  1
ハンドルジョイント
 41
0.9509433962264152
  7
FDASTYLE0
 72
     5
 11
431.2310437109724
 21
217.7600356824264
 31
0.0
100
AcDbText
  0
LINE
  5
189
330
A6
100
AcDbEntity
  8
LAYER0013
 62
     2
100
AcDbLine
 10
358.2310437109724
 20
215.7600356824264
 30
0.0
 11
432.2310437109724
 21
215.7600356824264
 31
0.0
  0
ENDBLK
  5
A8
330
A6
100
AcDbEntity
  8
0
100
AcDbBlockEnd
  0
BLOCK
  5
AA
330
A9
100
AcDbEntity
  8
0
100
AcDbBlockBegin
  2
DA_IMAGEDIMGROUP_24
 70
     0
 71
     0
 10
0.0
 20
0.0
 30
0.0
  3
DA_IMAGEDIMGROUP_24
  1

  0
LINE
  5
18A
330
A9
100
AcDbEntity
  8
LAYER0014
 62
     2
100
AcDbLine
 10
-280.4084382823926
 20
-169.2143493188148
 30
0.0
 11
-293.1842299052941
 21
-169.2143493188148
 31
0.0
  0
LINE
  5
18B
330
A9
100
AcDbEntity
  8
LAYER0014
 62
     2
100
AcDbLine
 10
-291.584229905294
 20
-193.2143493188147
 30
0.0
 11
-291.584229905294
 21
-169.2143493188148
 31
0.0
  0
LINE
  5
18C
330
A9
100
AcDbEntity
  8
LAYER0014
 62
     2
100
AcDbLine
 10
-291.584229905294
 20
-150.5055093188148
 30
0.0
 11
-291.584229905294
 21
-169.2143493188148
 31
0.0
  0
INSERT
  5
18D
330
A9
100
AcDbEntity
  8
LAYER0014
 62
     2
100
AcDbBlockReference
  2
_OPEN30
 10
-291.584229905294
 20
-169.2143493188148
 30
0.0
 41
6.117281464870029
 42
4.025550470965561
 50
270.0
  0
LINE
  5
18E
330
A9
100
AcDbEntity
  8
LAYER0014
 62
     2
100
AcDbLine
 10
-291.584229905294
 20
-200.2143493188147
 30
0.0
 11
-291.584229905294
 21
-193.2143493188147
 31
0.0
  0
INSERT
  5
18F
330
A9
100
AcDbEntity
  8
LAYER0014
 62
     2
100
AcDbBlockReference
  2
_OPEN30
 10
-291.584229905294
 20
-193.2143493188147
 30
0.0
 41
6.117281464870029
 42
4.025550470965561
 50
90.0
  0
TEXT
  5
190
330
A9
100
AcDbEntity
  8
LAYER0014
 62
     2
100
AcDbText
 10
-293.1842299052941
 20
-163.3055093188148
 30
0.0
 40
8.0
  1
24
 50
90.0
 41
0.8842105263157903
  7
DAVECTORFONT
 72
     5
 11
-293.1842299052941
 21
-150.5055093188148
 31
0.0
100
AcDbText
  0
ENDBLK
  5
AB
330
A9
100
AcDbEntity
  8
0
100
AcDbBlockEnd
  0
BLOCK
  5
AD
330
AC
100
AcDbEntity
  8
0
100
AcDbBlockBegin
  2
DA_IMAGEDIMGROUP_25
 70
     0
 71
     0
 10
0.0
 20
0.0
 30
0.0
  3
DA_IMAGEDIMGROUP_25
  1

  0
LINE
  5
191
330
AC
100
AcDbEntity
  8
LAYER0014
 62
     2
100
AcDbLine
 10
386.9169794323484
 20
-195.6143493188147
 30
0.0
 11
386.9169794323484
 21
-220.8143493188147
 31
0.0
  0
LINE
  5
192
330
AC
100
AcDbEntity
  8
LAYER0014
 62
     2
100
AcDbLine
 10
402.9169794323483
 20
-195.6143493188147
 30
0.0
 11
402.9169794323483
 21
-220.8143493188147
 31
0.0
  0
LINE
  5
193
330
AC
100
AcDbEntity
  8
LAYER0014
 62
     2
100
AcDbLine
 10
386.9169794323484
 20
-219.2143493188147
 30
0.0
 11
402.9169794323483
 21
-219.2143493188147
 31
0.0
  0
LINE
  5
194
330
AC
100
AcDbEntity
  8
LAYER0014
 62
     2
100
AcDbLine
 10
358.3839811440199
 20
-219.2143493188147
 30
0.0
 11
386.9169794323484
 21
-219.2143493188147
 31
0.0
  0
INSERT
  5
195
330
AC
100
AcDbEntity
  8
LAYER0014
 62
     2
100
AcDbBlockReference
  2
_OPEN30
 10
386.9169794323484
 20
-219.2143493188147
 30
0.0
 41
6.117281464870029
 42
4.025550470965561
 50
360.0
  0
LINE
  5
196
330
AC
100
AcDbEntity
  8
LAYER0014
 62
     2
100
AcDbLine
 10
409.9169794323483
 20
-219.2143493188147
 30
0.0
 11
402.9169794323483
 21
-219.2143493188147
 31
0.0
  0
INSERT
  5
197
330
AC
100
AcDbEntity
  8
LAYER0014
 62
     2
100
AcDbBlockReference
  2
_OPEN30
 10
402.9169794323483
 20
-219.2143493188147
 30
0.0
 41
6.117281464870029
 42
4.025550470965561
 50
180.0
  0
TEXT
  5
198
330
AC
100
AcDbEntity
  8
LAYER0014
 62
     2
100
AcDbText
 10
358.3839811440199
 20
-217.6143493188147
 30
0.0
 40
8.0
  1
16
 41
0.9081081081081089
  7
DAVECTORFONT
 72
     5
 11
371.1839811440199
 21
-217.6143493188147
 31
0.0
100
AcDbText
  0
TEXT
  5
199
330
AC
100
AcDbEntity
  8
LAYER0014
 62
     2
100
AcDbText
 10
372.1839811440199
 20
-217.6143493188147
 30
0.0
 40
8.0
  1
H7
 41
0.8615384615384624
  7
DAVECTORFONT
 72
     5
 11
384.9839811440199
 21
-217.6143493188147
 31
0.0
100
AcDbText
  0
ENDBLK
  5
AE
330
AC
100
AcDbEntity
  8
0
100
AcDbBlockEnd
  0
BLOCK
  5
B0
330
AF
100
AcDbEntity
  8
0
100
AcDbBlockBegin
  2
DA_IMAGEDIMGROUP_26
 70
     0
 71
     0
 10
0.0
 20
0.0
 30
0.0
  3
DA_IMAGEDIMGROUP_26
  1

  0
LINE
  5
19A
330
AF
100
AcDbEntity
  8
LAYER0014
 62
     2
100
AcDbLine
 10
405.3169794323483
 20
-189.2143493188147
 30
0.0
 11
422.5169794323483
 21
-189.2143493188147
 31
0.0
  0
LINE
  5
19B
330
AF
100
AcDbEntity
  8
LAYER0014
 62
     2
100
AcDbLine
 10
420.9169794323483
 20
-193.2143493188147
 30
0.0
 11
420.9169794323483
 21
-189.2143493188147
 31
0.0
  0
LINE
  5
19C
330
AF
100
AcDbEntity
  8
LAYER0014
 62
     2
100
AcDbLine
 10
420.9169794323483
 20
-205.5231893188147
 30
0.0
 11
420.9169794323483
 21
-193.2143493188147
 31
0.0
  0
INSERT
  5
19D
330
AF
100
AcDbEntity
  8
LAYER0014
 62
     2
100
AcDbBlockReference
  2
_OPEN30
 10
420.9169794323483
 20
-193.2143493188147
 30
0.0
 41
6.117281464870029
 42
4.025550470965561
 50
90.0
  0
LINE
  5
19E
330
AF
100
AcDbEntity
  8
LAYER0014
 62
     2
100
AcDbLine
 10
420.9169794323483
 20
-182.2143493188147
 30
0.0
 11
420.9169794323483
 21
-189.2143493188147
 31
0.0
  0
INSERT
  5
19F
330
AF
100
AcDbEntity
  8
LAYER0014
 62
     2
100
AcDbBlockReference
  2
_OPEN30
 10
420.9169794323483
 20
-189.2143493188147
 30
0.0
 41
6.117281464870029
 42
4.025550470965561
 50
270.0
  0
TEXT
  5
1A0
330
AF
100
AcDbEntity
  8
LAYER0014
 62
     2
100
AcDbText
 10
419.3169794323483
 20
-205.5231893188147
 30
0.0
 40
8.0
  1
4
 50
90.0
 41
0.93333333333333
  7
DAVECTORFONT
 72
     5
 11
419.3169794323483
 21
-199.1231893188147
 31
0.0
100
AcDbText
  0
ENDBLK
  5
B1
330
AF
100
AcDbEntity
  8
0
100
AcDbBlockEnd
  0
BLOCK
  5
B3
330
B2
100
AcDbEntity
  8
0
100
AcDbBlockBegin
  2
GROUP_8
 70
     0
 71
     0
 10
0.0
 20
0.0
 30
0.0
  3
GROUP_8
  1

  0
LINE
  5
1A1
330
B2
100
AcDbEntity
  8
ZUWAKU
 62
     3
100
AcDbLine
 10
-555.0
 20
385.0
 30
0.0
 11
555.0
 21
385.0
 31
0.0
  0
LINE
  5
1A2
330
B2
100
AcDbEntity
  8
ZUWAKU
 62
     3
100
AcDbLine
 10
-555.0
 20
-385.0
 30
0.0
 11
-555.0
 21
385.0
 31
0.0
  0
LINE
  5
1A3
330
B2
100
AcDbEntity
  8
ZUWAKU
 62
     3
100
AcDbLine
 10
555.0
 20
-385.0
 30
0.0
 11
-555.0
 21
-385.0
 31
0.0
  0
LINE
  5
1A4
330
B2
100
AcDbEntity
  8
ZUWAKU
 62
     3
100
AcDbLine
 10
555.0
 20
385.0
 30
0.0
 11
555.0
 21
-385.0
 31
0.0
  0
ENDBLK
  5
B4
330
B2
100
AcDbEntity
  8
0
100
AcDbBlockEnd
  0
ENDSEC
  0
SECTION
  2
ENTITIES
  0
CIRCLE
  5
1A5
330
1F
100
AcDbEntity
  8
0
 62
     3
100
AcDbCircle
 10
-262.0084382823935
 20
197.8436617772368
 30
0.0
 40
12.49999999999996
  0
LINE
  5
1A6
330
1F
100
AcDbEntity
  8
0
 62
     3
100
AcDbLine
 10
-278.0084382823926
 20
125.3436617772371
 30
0.0
 11
-278.0084382823926
 21
106.4872519931569
 31
0.0
  0
LINE
  5
1A7
330
1F
100
AcDbEntity
  8
0
 62
     3
100
AcDbLine
 10
-246.0084382823927
 20
125.3436617772371
 30
0.0
 11
-246.0084382823927
 21
106.4872519931569
 31
0.0
  0
LINE
  5
1A8
330
1F
100
AcDbEntity
  8
0
 62
     3
100
AcDbLine
 10
-246.0084382823927
 20
270.3436617772366
 30
0.0
 11
-246.0084382823927
 21
289.2000715613168
 31
0.0
  0
LINE
  5
1A9
330
1F
100
AcDbEntity
  8
0
 62
     3
100
AcDbLine
 10
-254.0084382823927
 20
270.3436617772366
 30
0.0
 11
-254.0084382823927
 21
290.0588568267484
 31
0.0
  0
LINE
  5
1AA
330
1F
100
AcDbEntity
  8
0
 62
     3
100
AcDbLine
 10
-270.0084382823926
 20
270.3436617772366
 30
0.0
 11
-270.0084382823926
 21
290.0588568267484
 31
0.0
  0
LINE
  5
1AB
330
1F
100
AcDbEntity
  8
0
 62
     3
100
AcDbLine
 10
-254.0084382823927
 20
125.3436617772371
 30
0.0
 11
-254.0084382823927
 21
105.6284667277252
 31
0.0
  0
LINE
  5
1AC
330
1F
100
AcDbEntity
  8
0
 62
     3
100
AcDbLine
 10
-270.0084382823926
 20
125.3436617772371
 30
0.0
 11
-270.0084382823926
 21
105.6284667277252
 31
0.0
  0
ARC
  5
1AD
330
1F
100
AcDbEntity
  8
0
 62
     3
100
AcDbCircle
 10
-262.0084382823927
 20
217.8436617772368
 30
0.0
 40
112.4999999999996
100
AcDbArc
 50
236.1181248025076
 51
265.9221917498699
  0
ARC
  5
1AE
330
1F
100
AcDbEntity
  8
0
 62
     3
100
AcDbCircle
 10
-262.0084382823927
 20
217.8436617772368
 30
0.0
 40
112.4999999999996
100
AcDbArc
 50
274.0778082501302
 51
303.8818751974924
  0
ARC
  5
1AF
330
1F
100
AcDbEntity
  8
0
 62
     3
100
AcDbCircle
 10
-262.0084382823927
 20
125.3436617772371
 30
0.0
 40
15.99999999999995
100
AcDbArc
 50
0.0
 51
180.0
  0
ARC
  5
1B0
330
1F
100
AcDbEntity
  8
0
 62
     3
100
AcDbCircle
 10
-262.0084382823927
 20
125.3436617772371
 30
0.0
 40
7.999999999999973
100
AcDbArc
 50
0.0
 51
180.0
  0
LINE
  5
1B1
330
1F
100
AcDbEntity
  8
0
 62
     3
100
AcDbLine
 10
-278.0084382823926
 20
270.3436617772366
 30
0.0
 11
-278.0084382823926
 21
289.2000715613167
 31
0.0
  0
ARC
  5
1B2
330
1F
100
AcDbEntity
  8
0
 62
     3
100
AcDbCircle
 10
-262.0084382823927
 20
177.8436617772369
 30
0.0
 40
112.4999999999996
100
AcDbArc
 50
56.11812480250726
 51
85.92219174986985
  0
ARC
  5
1B3
330
1F
100
AcDbEntity
  8
0
 62
     3
100
AcDbCircle
 10
-262.0084382823927
 20
177.8436617772369
 30
0.0
 40
112.4999999999996
100
AcDbArc
 50
94.07780825013016
 51
123.8818751974924
  0
ARC
  5
1B4
330
1F
100
AcDbEntity
  8
0
 62
     3
100
AcDbCircle
 10
-262.0084382823927
 20
270.3436617772366
 30
0.0
 40
15.99999999999995
100
AcDbArc
 50
180.0
 51
360.0
  0
ARC
  5
1B5
330
1F
100
AcDbEntity
  8
0
 62
     3
100
AcDbCircle
 10
-262.0084382823927
 20
270.3436617772366
 30
0.0
 40
7.999999999999973
100
AcDbArc
 50
180.0
 51
360.0
  0
LINE
  5
1B6
330
1F
100
AcDbEntity
  8
0
 62
     3
100
AcDbLine
 10
-416.0084382823922
 20
127.8436617772371
 30
0.0
 11
-335.8748717958632
 21
127.8436617772371
 31
0.0
  0
LINE
  5
1B7
330
1F
100
AcDbEntity
  8
0
 62
     3
100
AcDbLine
 10
-416.0084382823922
 20
267.8436617772366
 30
0.0
 11
-335.8748717958632
 21
267.8436617772366
 31
0.0
  0
ARC
  5
1B8
330
1F
100
AcDbEntity
  8
0
 62
     3
100
AcDbCircle
 10
-416.0084382823922
 20
237.8436617772367
 30
0.0
 40
29.9999999999999
100
AcDbArc
 50
90.0
 51
180.0
  0
ARC
  5
1B9
330
1F
100
AcDbEntity
  8
0
 62
     3
100
AcDbCircle
 10
-416.0084382823922
 20
157.843661777237
 30
0.0
 40
29.9999999999999
100
AcDbArc
 50
180.0
 51
270.0
  0
LINE
  5
1BA
330
1F
100
AcDbEntity
  8
0
 62
     3
100
AcDbLine
 10
-188.1420047689215
 20
267.8436617772362
 30
0.0
 11
53.99156171760717
 21
267.8436617772362
 31
0.0
  0
LINE
  5
1BB
330
1F
100
AcDbEntity
  8
0
 62
     3
100
AcDbLine
 10
-188.1420047689221
 20
127.8436617772371
 30
0.0
 11
53.99156171760717
 21
127.8436617772371
 31
0.0
  0
ARC
  5
1BC
330
1F
100
AcDbEntity
  8
0
 62
     3
100
AcDbCircle
 10
-335.8748717958632
 20
287.8436617772366
 30
0.0
 40
19.99999999999993
100
AcDbArc
 50
270.0
 51
303.8818751974924
  0
ARC
  5
1BD
330
1F
100
AcDbEntity
  8
0
 62
     3
100
AcDbCircle
 10
-188.1420047689215
 20
287.8436617772361
 30
0.0
 40
19.99999999999993
100
AcDbArc
 50
236.1181248025073
 51
270.0
  0
ARC
  5
1BE
330
1F
100
AcDbEntity
  8
0
 62
     3
100
AcDbCircle
 10
-188.1420047689221
 20
107.8436617772371
 30
0.0
 40
19.99999999999993
100
AcDbArc
 50
90.0
 51
123.8818751974925
  0
ARC
  5
1BF
330
1F
100
AcDbEntity
  8
0
 62
     3
100
AcDbCircle
 10
-335.8748717958632
 20
107.8436617772371
 30
0.0
 40
19.99999999999993
100
AcDbArc
 50
56.11812480250758
 51
90.0
  0
LINE
  5
1C0
330
1F
100
AcDbEntity
  8
0
 62
     3
100
AcDbLine
 10
-349.0084382823924
 20
261.3436617772366
 30
0.0
 11
-349.0084382823924
 21
134.3436617772371
 31
0.0
  0
LINE
  5
1C1
330
1F
100
AcDbEntity
  8
0
 62
     3
100
AcDbLine
 10
-349.0084382823924
 20
260.3436617772366
 30
0.0
 11
-366.0084382823923
 21
260.3436617772366
 31
0.0
  0
LINE
  5
1C2
330
1F
100
AcDbEntity
  8
0
 62
     3
100
AcDbLine
 10
-349.0084382823907
 20
135.3436617772371
 30
0.0
 11
-366.0084382823923
 21
135.3436617772371
 31
0.0
  0
LINE
  5
1C3
330
1F
100
AcDbEntity
  8
0
 62
     3
100
AcDbLine
 10
-366.0084382823923
 20
135.3436617772371
 30
0.0
 11
-366.0084382823923
 21
260.3436617772366
 31
0.0
  0
LINE
  5
1C4
330
1F
100
AcDbEntity
  8
0
 62
     3
100
AcDbLine
 10
83.99156171760798
 20
-172.2143493188148
 30
0.0
 11
83.99156171760798
 21
-193.2143493188147
 31
0.0
  0
LINE
  5
1C5
330
1F
100
AcDbEntity
  8
0
 62
     3
100
AcDbLine
 10
-446.0084382823912
 20
-193.2143493188147
 30
0.0
 11
-446.0084382823912
 21
-172.2143493188148
 31
0.0
  0
LINE
  5
1C6
330
1F
100
AcDbEntity
  8
0
 62
     3
100
AcDbLine
 10
-349.0084382823915
 20
-76.2143493188151
 30
0.0
 11
-349.0084382823915
 21
-121.214349318815
 31
0.0
  0
LINE
  5
1C7
330
1F
100
AcDbEntity
  8
0
 62
     3
100
AcDbLine
 10
-349.0084382823915
 20
-76.21434931881504
 30
0.0
 11
-366.0084382823915
 21
-76.21434931881504
 31
0.0
  0
LINE
  5
1C8
330
1F
100
AcDbEntity
  8
0
 62
     3
100
AcDbLine
 10
-366.0084382823915
 20
-76.21434931881504
 30
0.0
 11
-366.0084382823915
 21
-128.214349318815
 31
0.0
  0
LINE
  5
1C9
330
1F
100
AcDbEntity
  8
0
 62
     3
100
AcDbLine
 10
-344.0084382823916
 20
-130.2143493188149
 30
0.0
 11
-344.0084382823916
 21
-121.214349318815
 31
0.0
  0
LINE
  5
1CA
330
1F
100
AcDbEntity
  8
0
 62
     3
100
AcDbLine
 10
-361.0084382823915
 20
-133.2143493188149
 30
0.0
 11
-347.0084382823916
 21
-133.2143493188149
 31
0.0
  0
ARC
  5
1CB
330
1F
100
AcDbEntity
  8
0
 62
     3
100
AcDbCircle
 10
-361.0084382823915
 20
-128.214349318815
 30
0.0
 40
4.999999999999983
100
AcDbArc
 50
180.0
 51
270.0
  0
LINE
  5
1CC
330
1F
100
AcDbEntity
  8
0
 62
     3
100
AcDbLine
 10
-383.3289463580802
 20
-79.21434931881501
 30
0.0
 11
-369.0084382823915
 21
-79.21434931881504
 31
0.0
  0
LINE
  5
1CD
330
1F
100
AcDbEntity
  8
0
 62
     3
100
AcDbLine
 10
-388.32894635808
 20
-80.55409528097053
 30
0.0
 11
-415.3352800422459
 21
-96.14620930334772
 31
0.0
  0
LINE
  5
1CE
330
1F
100
AcDbEntity
  8
0
 62
     3
100
AcDbLine
 10
-420.2972270231636
 20
-103.9349059137157
 30
0.0
 11
-426.0084382823904
 21
-169.2143493187984
 31
0.0
  0
LINE
  5
1CF
330
1F
100
AcDbEntity
  8
0
 62
     3
100
AcDbLine
 10
63.99156171760889
 20
-122.714349318815
 30
0.0
 11
63.99156171760889
 21
-169.2143493188148
 31
0.0
  0
LINE
  5
1D0
330
1F
100
AcDbEntity
  8
0
 62
     3
100
AcDbLine
 10
63.99156171760889
 20
-133.2143493188149
 30
0.0
 11
-334.0084382823916
 21
-133.2143493188149
 31
0.0
  0
LINE
  5
1D1
330
1F
100
AcDbEntity
  8
0
 62
     3
100
AcDbLine
 10
-334.0084382823916
 20
-133.2143493188149
 30
0.0
 11
-334.0084382823916
 21
-146.2143493188149
 31
0.0
  0
CIRCLE
  5
1D2
330
1F
100
AcDbEntity
  8
0
 62
     3
100
AcDbCircle
 10
-193.0084382823911
 20
-156.2143493188148
 30
0.0
 40
7.999999999999973
  0
CIRCLE
  5
1D3
330
1F
100
AcDbEntity
  8
0
 62
     3
100
AcDbCircle
 10
-119.0084382823914
 20
-156.2143493188148
 30
0.0
 40
7.999999999999973
  0
CIRCLE
  5
1D4
330
1F
100
AcDbEntity
  8
0
 62
     3
100
AcDbCircle
 10
-45.00843828239168
 20
-156.2143493188148
 30
0.0
 40
7.999999999999973
  0
ARC
  5
1D5
330
1F
100
AcDbEntity
  8
0
 62
     3
100
AcDbCircle
 10
-193.0084382823911
 20
-156.2143493188148
 30
0.0
 40
10.99999999999996
100
AcDbArc
 50
114.6199773286571
 51
65.38002267134294
  0
LINE
  5
1D6
330
1F
100
AcDbEntity
  8
0
 62
     3
100
AcDbLine
 10
-334.0084382823916
 20
-146.2143493188149
 30
0.0
 11
-197.591013977347
 21
-146.2143493188149
 31
0.0
  0
LINE
  5
1D7
330
1F
100
AcDbEntity
  8
0
 62
     3
100
AcDbLine
 10
-188.4258625874354
 20
-146.2143493188149
 30
0.0
 11
-123.5910139773472
 21
-146.2143493188149
 31
0.0
  0
ARC
  5
1D8
330
1F
100
AcDbEntity
  8
0
 62
     3
100
AcDbCircle
 10
-119.0084382823914
 20
-156.2143493188148
 30
0.0
 40
10.99999999999996
100
AcDbArc
 50
114.6199773286571
 51
65.38002267134294
  0
LINE
  5
1D9
330
1F
100
AcDbEntity
  8
0
 62
     3
100
AcDbLine
 10
-114.4258625874356
 20
-146.2143493188149
 30
0.0
 11
-49.5910139773475
 21
-146.2143493188149
 31
0.0
  0
LINE
  5
1DA
330
1F
100
AcDbEntity
  8
0
 62
     3
100
AcDbLine
 10
-40.42586258743586
 20
-146.2143493188149
 30
0.0
 11
63.99156171760889
 21
-146.2143493188149
 31
0.0
  0
ARC
  5
1DB
330
1F
100
AcDbEntity
  8
0
 62
     3
100
AcDbCircle
 10
-45.00843828239168
 20
-156.2143493188148
 30
0.0
 40
10.99999999999996
100
AcDbArc
 50
114.6199773286571
 51
65.38002267134294
  0
ARC
  5
1DC
330
1F
100
AcDbEntity
  8
0
 62
     3
100
AcDbCircle
 10
80.99156171760798
 20
-172.2143493188148
 30
0.0
 40
2.99999999999999
100
AcDbArc
 50
0.0
 51
90.0
  0
ARC
  5
1DD
330
1F
100
AcDbEntity
  8
0
 62
     3
100
AcDbCircle
 10
-443.0084382823912
 20
-172.2143493188148
 30
0.0
 40
2.99999999999999
100
AcDbArc
 50
90.0
 51
180.0
  0
ARC
  5
1DE
330
1F
100
AcDbEntity
  8
0
 62
     3
100
AcDbCircle
 10
-369.0084382823915
 20
-76.21434931881504
 30
0.0
 40
2.99999999999999
100
AcDbArc
 50
270.0
 51
360.0
  0
LINE
  5
1DF
330
1F
100
AcDbEntity
  8
0
 62
     3
100
AcDbLine
 10
-421.0084382823895
 20
257.3436617772367
 30
0.0
 11
-369.0084382823923
 21
257.3436617772367
 31
0.0
  0
LINE
  5
1E0
330
1F
100
AcDbEntity
  8
0
 62
     3
100
AcDbLine
 10
-421.0084382823895
 20
138.3436617772371
 30
0.0
 11
-369.0084382823923
 21
138.3436617772371
 31
0.0
  0
LINE
  5
1E1
330
1F
100
AcDbEntity
  8
0
 62
     3
100
AcDbLine
 10
-426.0084382823895
 20
252.3436617772367
 30
0.0
 11
-426.0084382823895
 21
143.343661777237
 31
0.0
  0
LINE
  5
1E2
330
1F
100
AcDbEntity
  8
0
 62
     3
100
AcDbLine
 10
-386.0084382823906
 20
254.3436617772367
 30
0.0
 11
-386.0084382823906
 21
141.343661777237
 31
0.0
  0
LINE
  5
1E3
330
1F
100
AcDbEntity
  8
0
 62
     3
100
AcDbLine
 10
-419.8435229437548
 20
141.343661777237
 30
0.0
 11
-419.8435229437548
 21
254.3436617772367
 31
0.0
  0
ARC
  5
1E4
330
1F
100
AcDbEntity
  8
0
 62
     3
100
AcDbCircle
 10
-369.0084382823923
 20
260.3436617772366
 30
0.0
 40
2.99999999999999
100
AcDbArc
 50
270.0
 51
360.0
  0
ARC
  5
1E5
330
1F
100
AcDbEntity
  8
0
 62
     3
100
AcDbCircle
 10
-369.0084382823923
 20
135.3436617772371
 30
0.0
 40
2.99999999999999
100
AcDbArc
 50
0.0
 51
90.0
  0
ARC
  5
1E6
330
1F
100
AcDbEntity
  8
0
 62
     3
100
AcDbCircle
 10
-421.0084382823895
 20
143.343661777237
 30
0.0
 40
4.999999999999983
100
AcDbArc
 50
180.0
 51
270.0
  0
ARC
  5
1E7
330
1F
100
AcDbEntity
  8
0
 62
     3
100
AcDbCircle
 10
-421.0084382823895
 20
252.3436617772367
 30
0.0
 40
4.999999999999983
100
AcDbArc
 50
90.0
 51
180.0
  0
LINE
  5
1E8
330
1F
100
AcDbEntity
  8
0
 62
     3
100
AcDbLine
 10
-416.0084382823914
 20
262.8436617772366
 30
0.0
 11
-335.8748717958632
 21
262.8436617772366
 31
0.0
  0
LINE
  5
1E9
330
1F
100
AcDbEntity
  8
0
 62
     3
100
AcDbLine
 10
-416.0084382823914
 20
132.8436617772371
 30
0.0
 11
-335.8748717958632
 21
132.8436617772371
 31
0.0
  0
LINE
  5
1EA
330
1F
100
AcDbEntity
  8
0
 62
     3
100
AcDbLine
 10
53.99156171760806
 20
132.8436617772371
 30
0.0
 11
-188.1420047689221
 21
132.8436617772371
 31
0.0
  0
LINE
  5
1EB
330
1F
100
AcDbEntity
  8
0
 62
     3
100
AcDbLine
 10
53.99156171760806
 20
262.8436617772366
 30
0.0
 11
-188.1420047689221
 21
262.8436617772366
 31
0.0
  0
ARC
  5
1EC
330
1F
100
AcDbEntity
  8
0
 62
     3
100
AcDbCircle
 10
-416.0084382823914
 20
237.8436617772367
 30
0.0
 40
24.99999999999992
100
AcDbArc
 50
90.0
 51
180.0
  0
ARC
  5
1ED
330
1F
100
AcDbEntity
  8
0
 62
     3
100
AcDbCircle
 10
-416.0084382823914
 20
157.843661777237
 30
0.0
 40
24.99999999999992
100
AcDbArc
 50
180.0
 51
270.0
  0
ARC
  5
1EE
330
1F
100
AcDbEntity
  8
0
 62
     3
100
AcDbCircle
 10
-188.1420047689221
 20
287.8436617772366
 30
0.0
 40
24.99999999999992
100
AcDbArc
 50
236.1181248025076
 51
270.0
  0
ARC
  5
1EF
330
1F
100
AcDbEntity
  8
0
 62
     3
100
AcDbCircle
 10
-335.8748717958632
 20
287.8436617772364
 30
0.0
 40
24.99999999999992
100
AcDbArc
 50
270.0
 51
303.8818751974925
  0
ARC
  5
1F0
330
1F
100
AcDbEntity
  8
0
 62
     3
100
AcDbCircle
 10
-335.8748717958632
 20
107.8436617772372
 30
0.0
 40
24.99999999999992
100
AcDbArc
 50
56.11812480250753
 51
90.0
  0
ARC
  5
1F1
330
1F
100
AcDbEntity
  8
0
 62
     3
100
AcDbCircle
 10
-188.1420047689221
 20
107.8436617772371
 30
0.0
 40
24.99999999999992
100
AcDbArc
 50
90.0
 51
123.8818751974924
  0
ARC
  5
1F2
330
1F
100
AcDbEntity
  8
0
 62
     3
100
AcDbCircle
 10
-262.0084382823927
 20
177.8436617772369
 30
0.0
 40
107.4999999999996
100
AcDbArc
 50
56.11812480250756
 51
65.85226008297902
  0
ARC
  5
1F3
330
1F
100
AcDbEntity
  8
0
 62
     3
100
AcDbCircle
 10
-217.0084382823951
 20
278.2179612766612
 30
0.0
 40
2.499999999999992
100
AcDbArc
 50
65.85226008297882
 51
245.8522600829788
  0
ARC
  5
1F4
330
1F
100
AcDbEntity
  8
0
 62
     3
100
AcDbCircle
 10
-307.0084382823947
 20
278.2179612766592
 30
0.0
 40
2.499999999999992
100
AcDbArc
 50
294.1477399170235
 51
114.1477399170236
  0
ARC
  5
1F5
330
1F
100
AcDbEntity
  8
0
 62
     3
100
AcDbCircle
 10
-262.0084382823927
 20
177.8436617772369
 30
0.0
 40
107.4999999999996
100
AcDbArc
 50
114.1477399170236
 51
123.8818751974925
  0
ARC
  5
1F6
330
1F
100
AcDbEntity
  8
0
 62
     3
100
AcDbCircle
 10
-307.0084382823947
 20
117.4693622778145
 30
0.0
 40
2.499999999999992
100
AcDbArc
 50
245.8522600829764
 51
65.85226008297644
  0
ARC
  5
1F7
330
1F
100
AcDbEntity
  8
0
 62
     3
100
AcDbCircle
 10
-262.0084382823927
 20
217.8436617772368
 30
0.0
 40
107.4999999999996
100
AcDbArc
 50
236.1181248025076
 51
245.8522600829764
  0
ARC
  5
1F8
330
1F
100
AcDbEntity
  8
0
 62
     3
100
AcDbCircle
 10
-217.0084382823951
 20
117.4693622778125
 30
0.0
 40
2.499999999999992
100
AcDbArc
 50
114.147739917021
 51
294.1477399170209
  0
ARC
  5
1F9
330
1F
100
AcDbEntity
  8
0
 62
     3
100
AcDbCircle
 10
-262.0084382823927
 20
217.8436617772368
 30
0.0
 40
107.4999999999996
100
AcDbArc
 50
294.147739917021
 51
303.8818751974924
  0
LINE
  5
1FA
330
1F
100
AcDbEntity
  8
0
 62
     3
100
AcDbLine
 10
-270.0084382823926
 20
-189.2143493188147
 30
0.0
 11
-254.0084382823927
 21
-189.2143493188147
 31
0.0
  0
LINE
  5
1FB
330
1F
100
AcDbEntity
  8
0
 62
     3
100
AcDbLine
 10
-254.0084382823927
 20
-169.2143493188148
 30
0.0
 11
-254.0084382823927
 21
-201.2143493188147
 31
0.0
  0
LINE
  5
1FC
330
1F
100
AcDbEntity
  8
0
 62
     3
100
AcDbLine
 10
-270.0084382823926
 20
-169.2143493188148
 30
0.0
 11
-270.0084382823926
 21
-201.2143493188147
 31
0.0
  0
LINE
  5
1FD
330
1F
100
AcDbEntity
  8
0
 62
     3
100
AcDbLine
 10
-283.2045907050992
 20
-175.2143493188147
 30
0.0
 11
-301.5084382823948
 21
-175.2143493188147
 31
0.0
  0
LINE
  5
1FE
330
1F
100
AcDbEntity
  8
0
 62
     3
100
AcDbLine
 10
-240.8122858596861
 20
-175.2143493188147
 30
0.0
 11
-222.5084382823951
 21
-175.2143493188147
 31
0.0
  0
LINE
  5
1FF
330
1F
100
AcDbEntity
  8
0
 62
     3
100
AcDbLine
 10
-443.0084382823912
 20
-169.2143493188148
 30
0.0
 11
-307.5084382823948
 21
-169.2143493188148
 31
0.0
  0
LINE
  5
200
330
1F
100
AcDbEntity
  8
0
 62
     3
100
AcDbLine
 10
-278.0084382823926
 20
-169.2143493188148
 30
0.0
 11
-246.0084382823927
 21
-169.2143493188148
 31
0.0
  0
LINE
  5
201
330
1F
100
AcDbEntity
  8
0
 62
     3
100
AcDbLine
 10
-216.5084382823951
 20
-169.2143493188148
 30
0.0
 11
80.99156171760797
 21
-169.2143493188148
 31
0.0
  0
ARC
  5
202
330
1F
100
AcDbEntity
  8
0
 62
     3
100
AcDbCircle
 10
-301.5084382823948
 20
-172.2143493188147
 30
0.0
 40
2.99999999999999
100
AcDbArc
 50
180.0
 51
270.0
  0
ARC
  5
203
330
1F
100
AcDbEntity
  8
0
 62
     3
100
AcDbCircle
 10
-222.5084382823951
 20
-172.2143493188147
 30
0.0
 40
2.99999999999999
100
AcDbArc
 50
270.0
 51
360.0
  0
ARC
  5
204
330
1F
100
AcDbEntity
  8
0
 62
     3
100
AcDbCircle
 10
-216.5084382823951
 20
-172.2143493188148
 30
0.0
 40
2.99999999999999
100
AcDbArc
 50
90.0
 51
180.0
  0
ARC
  5
205
330
1F
100
AcDbEntity
  8
0
 62
     3
100
AcDbCircle
 10
-307.5084382823948
 20
-172.2143493188148
 30
0.0
 40
2.99999999999999
100
AcDbArc
 50
0.0
 51
90.0
  0
LINE
  5
206
330
1F
100
AcDbEntity
  8
0
 62
     3
100
AcDbLine
 10
-426.0084382823923
 20
213.8436617772368
 30
0.0
 11
-436.0084382823912
 21
213.8436617772368
 31
0.0
  0
LINE
  5
207
330
1F
100
AcDbEntity
  8
0
 62
     3
100
AcDbLine
 10
-426.0084382823895
 20
205.8436617772368
 30
0.0
 11
-446.008438282392
 21
205.8436617772368
 31
0.0
  0
LINE
  5
208
330
1F
100
AcDbEntity
  8
0
 62
     3
100
AcDbLine
 10
-426.0084382823895
 20
189.8436617772369
 30
0.0
 11
-446.008438282392
 21
189.8436617772369
 31
0.0
  0
LINE
  5
209
330
1F
100
AcDbEntity
  8
0
 62
     3
100
AcDbLine
 10
-426.0084382823895
 20
181.8436617772369
 30
0.0
 11
-436.0084382823912
 21
181.8436617772369
 31
0.0
  0
LINE
  5
20A
330
1F
100
AcDbEntity
  8
0
 62
     3
100
AcDbLine
 10
-441.0084382823912
 20
157.843661777237
 30
0.0
 11
-441.0084382823912
 21
176.8436617772369
 31
0.0
  0
LINE
  5
20B
330
1F
100
AcDbEntity
  8
0
 62
     3
100
AcDbLine
 10
-441.0084382823912
 20
218.8436617772368
 30
0.0
 11
-441.0084382823912
 21
237.8436617772367
 31
0.0
  0
LINE
  5
20C
330
1F
100
AcDbEntity
  8
0
 62
     3
100
AcDbLine
 10
-446.008438282392
 20
237.8436617772367
 30
0.0
 11
-446.008438282392
 21
205.8436617772368
 31
0.0
  0
LINE
  5
20D
330
1F
100
AcDbEntity
  8
0
 62
     3
100
AcDbLine
 10
-446.008438282392
 20
189.8436617772369
 30
0.0
 11
-446.008438282392
 21
157.843661777237
 31
0.0
  0
ARC
  5
20E
330
1F
100
AcDbEntity
  8
0
 62
     3
100
AcDbCircle
 10
-436.0084382823912
 20
218.8436617772368
 30
0.0
 40
4.999999999999983
100
AcDbArc
 50
180.0
 51
270.0
  0
ARC
  5
20F
330
1F
100
AcDbEntity
  8
0
 62
     3
100
AcDbCircle
 10
-436.0084382823912
 20
176.8436617772369
 30
0.0
 40
4.999999999999983
100
AcDbArc
 50
90.0
 51
180.0
  0
LINE
  5
210
330
1F
100
AcDbEntity
  8
0
 62
     3
100
AcDbLine
 10
-334.0084382823907
 20
152.343661777237
 30
0.0
 11
-322.0084382823924
 21
152.343661777237
 31
0.0
  0
LINE
  5
211
330
1F
100
AcDbEntity
  8
0
 62
     3
100
AcDbLine
 10
-334.0084382823907
 20
243.3436617772367
 30
0.0
 11
-322.0084382823924
 21
243.3436617772367
 31
0.0
  0
ARC
  5
212
330
1F
100
AcDbEntity
  8
0
 62
     3
100
AcDbCircle
 10
-322.0084382823924
 20
246.3436617772367
 30
0.0
 40
2.99999999999999
100
AcDbArc
 50
270.0
 51
360.0
  0
ARC
  5
213
330
1F
100
AcDbEntity
  8
0
 62
     3
100
AcDbCircle
 10
-322.0084382823924
 20
149.343661777237
 30
0.0
 40
2.99999999999999
100
AcDbArc
 50
0.0
 51
90.0
  0
LINE
  5
214
330
1F
100
AcDbEntity
  8
0
 62
     3
100
AcDbLine
 10
-326.0084382823925
 20
172.3436617772369
 30
0.0
 11
-320.4084382823925
 21
172.3436617772369
 31
0.0
  0
LINE
  5
215
330
1F
100
AcDbEntity
  8
0
 62
     3
100
AcDbLine
 10
-326.0084382823925
 20
223.3436617772368
 30
0.0
 11
-320.4084382823925
 21
223.3436617772368
 31
0.0
  0
ARC
  5
216
330
1F
100
AcDbEntity
  8
0
 62
     3
100
AcDbCircle
 10
-326.0084382823925
 20
203.3436617772368
 30
0.0
 40
19.99999999999993
100
AcDbArc
 50
90.0
 51
113.5781784782038
  0
ARC
  5
217
330
1F
100
AcDbEntity
  8
0
 62
     3
100
AcDbCircle
 10
-326.0084382823925
 20
192.3436617772369
 30
0.0
 40
19.99999999999993
100
AcDbArc
 50
246.4218215217966
 51
270.0
  0
ARC
  5
218
330
1F
100
AcDbEntity
  8
0
 62
     3
100
AcDbCircle
 10
-320.4084382823925
 20
221.9436617772367
 30
0.0
 40
1.399999999999995
100
AcDbArc
 50
0.0
 51
90.0
  0
ARC
  5
219
330
1F
100
AcDbEntity
  8
0
 62
     3
100
AcDbCircle
 10
-320.4084382823925
 20
173.7436617772369
 30
0.0
 40
1.399999999999995
100
AcDbArc
 50
270.0
 51
360.0
  0
LINE
  5
21A
330
1F
100
AcDbEntity
  8
0
 62
     3
100
AcDbLine
 10
-334.0084382823916
 20
-121.214349318815
 30
0.0
 11
-334.0084382823916
 21
-75.2143493188151
 31
0.0
  0
LINE
  5
21B
330
1F
100
AcDbEntity
  8
0
 62
     3
100
AcDbLine
 10
-334.0084382823916
 20
-75.2143493188151
 30
0.0
 11
-348.0084382823916
 21
-75.2143493188151
 31
0.0
  0
LINE
  5
21C
330
1F
100
AcDbEntity
  8
0
 62
     3
100
AcDbLine
 10
-349.0084382823915
 20
-76.2143493188151
 30
0.0
 11
-348.0084382823916
 21
-75.2143493188151
 31
0.0
  0
LINE
  5
21D
330
1F
100
AcDbEntity
  8
0
 62
     3
100
AcDbLine
 10
-34.00843828239464
 20
260.3436617772366
 30
0.0
 11
-34.00843828239464
 21
135.3436617772371
 31
0.0
  0
LINE
  5
21E
330
1F
100
AcDbEntity
  8
0
 62
     3
100
AcDbLine
 10
-194.0084382823933
 20
261.3436617772366
 30
0.0
 11
-194.0084382823933
 21
134.3436617772371
 31
0.0
  0
LINE
  5
21F
330
1F
100
AcDbEntity
  8
0
 62
     3
100
AcDbLine
 10
-194.0084382823925
 20
135.3436617772371
 30
0.0
 11
-34.00843828239465
 21
135.3436617772371
 31
0.0
  0
LINE
  5
220
330
1F
100
AcDbEntity
  8
0
 62
     3
100
AcDbLine
 10
-194.0084382823925
 20
260.3436617772366
 30
0.0
 11
-34.00843828239465
 21
260.3436617772366
 31
0.0
  0
LINE
  5
221
330
1F
100
AcDbEntity
  8
0
 62
     3
100
AcDbLine
 10
-34.00843828239378
 20
-76.2143493188151
 30
0.0
 11
-34.00843828239378
 21
-145.2143493188149
 31
0.0
  0
LINE
  5
222
330
1F
100
AcDbEntity
  8
0
 62
     3
100
AcDbLine
 10
-194.0084382823925
 20
-75.91434931881508
 30
0.0
 11
-194.0084382823925
 21
-120.9143493188149
 31
0.0
  0
LINE
  5
223
330
1F
100
AcDbEntity
  8
0
 62
     3
100
AcDbLine
 10
-199.0084382823933
 20
-145.2143493188149
 30
0.0
 11
-199.0084382823933
 21
-120.9143493188149
 31
0.0
  0
LINE
  5
224
330
1F
100
AcDbEntity
  8
0
 62
     3
100
AcDbLine
 10
-194.0084382823925
 20
-76.2143493188151
 30
0.0
 11
-34.0084382823938
 21
-76.2143493188151
 31
0.0
  0
LINE
  5
225
330
1F
100
AcDbEntity
  8
0
 62
     3
100
AcDbLine
 10
-194.0084382823925
 20
-120.9143493188149
 30
0.0
 11
-209.0084382823916
 21
-120.9143493188149
 31
0.0
  0
LINE
  5
226
330
1F
100
AcDbEntity
  8
0
 62
     3
100
AcDbLine
 10
-209.0084382823916
 20
-74.91434931881508
 30
0.0
 11
-209.0084382823916
 21
-120.9143493188149
 31
0.0
  0
LINE
  5
227
330
1F
100
AcDbEntity
  8
0
 62
     3
100
AcDbLine
 10
-209.0084382823916
 20
-74.91434931881508
 30
0.0
 11
-195.0084382823924
 21
-74.91434931881508
 31
0.0
  0
LINE
  5
228
330
1F
100
AcDbEntity
  8
0
 62
     3
100
AcDbLine
 10
-195.0084382823924
 20
-74.91434931881508
 30
0.0
 11
-194.0084382823925
 21
-75.91434931881508
 31
0.0
  0
LINE
  5
229
330
1F
100
AcDbEntity
  8
0
 62
     3
100
AcDbLine
 10
-334.0084382823907
 20
262.3436617772366
 30
0.0
 11
-348.0084382823924
 21
262.3436617772366
 31
0.0
  0
LINE
  5
22A
330
1F
100
AcDbEntity
  8
0
 62
     3
100
AcDbLine
 10
-348.0084382823924
 20
133.3436617772371
 30
0.0
 11
-334.0084382823907
 21
133.3436617772371
 31
0.0
  0
LINE
  5
22B
330
1F
100
AcDbEntity
  8
0
 62
     3
100
AcDbLine
 10
-334.0084382823907
 20
133.3436617772371
 30
0.0
 11
-334.0084382823907
 21
262.3436617772366
 31
0.0
  0
LINE
  5
22C
330
1F
100
AcDbEntity
  8
0
 62
     3
100
AcDbLine
 10
-349.0084382823924
 20
134.3436617772371
 30
0.0
 11
-348.0084382823924
 21
133.3436617772371
 31
0.0
  0
LINE
  5
22D
330
1F
100
AcDbEntity
  8
0
 62
     3
100
AcDbLine
 10
-349.0084382823924
 20
261.3436617772366
 30
0.0
 11
-348.0084382823924
 21
262.3436617772366
 31
0.0
  0
LINE
  5
22E
330
1F
100
AcDbEntity
  8
0
 62
     3
100
AcDbLine
 10
-195.0084382823933
 20
133.3436617772371
 30
0.0
 11
-209.0084382823916
 21
133.3436617772371
 31
0.0
  0
LINE
  5
22F
330
1F
100
AcDbEntity
  8
0
 62
     3
100
AcDbLine
 10
-195.0084382823933
 20
262.3436617772366
 30
0.0
 11
-209.0084382823916
 21
262.3436617772366
 31
0.0
  0
LINE
  5
230
330
1F
100
AcDbEntity
  8
0
 62
     3
100
AcDbLine
 10
-209.0084382823916
 20
262.3436617772366
 30
0.0
 11
-209.0084382823916
 21
133.3436617772371
 31
0.0
  0
LINE
  5
231
330
1F
100
AcDbEntity
  8
0
 62
     3
100
AcDbLine
 10
-195.0084382823933
 20
262.3436617772366
 30
0.0
 11
-194.0084382823933
 21
261.3436617772366
 31
0.0
  0
LINE
  5
232
330
1F
100
AcDbEntity
  8
0
 62
     3
100
AcDbLine
 10
-195.0084382823933
 20
133.3436617772371
 30
0.0
 11
-194.0084382823933
 21
134.3436617772371
 31
0.0
  0
LINE
  5
233
330
1F
100
AcDbEntity
  8
0
 62
     3
100
AcDbLine
 10
-34.00843828239378
 20
-145.2143493188149
 30
0.0
 11
-199.0084382823933
 21
-145.2143493188149
 31
0.0
  0
LINE
  5
234
330
1F
100
AcDbEntity
  8
0
 62
     3
100
AcDbLine
 10
-349.0084382823915
 20
-121.214349318815
 30
0.0
 11
-34.0084382823938
 21
-121.214349318815
 31
0.0
  0
LINE
  5
235
330
1F
100
AcDbEntity
  8
0
 62
     3
100
AcDbLine
 10
-34.00843828239381
 20
-121.214349318815
 30
0.0
 11
-31.00843828239125
 21
-121.214349318815
 31
0.0
  0
LINE
  5
236
330
1F
100
AcDbEntity
  8
0
 62
     3
100
AcDbLine
 10
35.99156171760514
 20
218.8436617772368
 30
0.0
 11
35.99156171760514
 21
176.8436617772369
 31
0.0
  0
LINE
  5
237
330
1F
100
AcDbEntity
  8
0
 62
     3
100
AcDbLine
 10
-34.00843828239464
 20
259.8436617772366
 30
0.0
 11
-21.00843828239466
 21
259.8436617772366
 31
0.0
  0
LINE
  5
238
330
1F
100
AcDbEntity
  8
0
 62
     3
100
AcDbLine
 10
-34.00843828239464
 20
135.8436617772371
 30
0.0
 11
-21.00843828239466
 21
135.8436617772371
 31
0.0
  0
LINE
  5
239
330
1F
100
AcDbEntity
  8
0
 62
     3
100
AcDbLine
 10
-18.00843828239466
 20
256.8436617772367
 30
0.0
 11
-18.00843828239466
 21
222.8436617772368
 31
0.0
  0
LINE
  5
23A
330
1F
100
AcDbEntity
  8
0
 62
     3
100
AcDbLine
 10
-18.00843828239466
 20
138.843661777237
 30
0.0
 11
-18.00843828239466
 21
172.8436617772369
 31
0.0
  0
LINE
  5
23B
330
1F
100
AcDbEntity
  8
0
 62
     3
100
AcDbLine
 10
27.99156171760431
 20
157.843661777237
 30
0.0
 11
-15.00843828239469
 21
157.843661777237
 31
0.0
  0
LINE
  5
23C
330
1F
100
AcDbEntity
  8
0
 62
     3
100
AcDbLine
 10
27.99156171760431
 20
237.8436617772367
 30
0.0
 11
-15.00843828239469
 21
237.8436617772367
 31
0.0
  0
LINE
  5
23D
330
1F
100
AcDbEntity
  8
0
 62
     3
100
AcDbLine
 10
32.99156171760431
 20
232.8436617772367
 30
0.0
 11
32.99156171760431
 21
162.843661777237
 31
0.0
  0
LINE
  5
23E
330
1F
100
AcDbEntity
  8
0
 62
     3
100
AcDbLine
 10
-13.00843828239469
 20
217.8436617772368
 30
0.0
 11
17.99156171760514
 21
217.8436617772368
 31
0.0
  0
LINE
  5
23F
330
1F
100
AcDbEntity
  8
0
 62
     3
100
AcDbLine
 10
-13.00843828239469
 20
177.8436617772369
 30
0.0
 11
17.99156171760514
 21
177.8436617772369
 31
0.0
  0
LINE
  5
240
330
1F
100
AcDbEntity
  8
0
 62
     3
100
AcDbLine
 10
22.99156171760514
 20
182.8436617772369
 30
0.0
 11
22.99156171760514
 21
212.8436617772368
 31
0.0
  0
ARC
  5
241
330
1F
100
AcDbEntity
  8
0
 62
     3
100
AcDbCircle
 10
-13.00843828239469
 20
222.8436617772368
 30
0.0
 40
4.999999999999983
100
AcDbArc
 50
180.0
 51
270.0
  0
ARC
  5
242
330
1F
100
AcDbEntity
  8
0
 62
     3
100
AcDbCircle
 10
-13.00843828239469
 20
172.8436617772369
 30
0.0
 40
4.999999999999983
100
AcDbArc
 50
90.0
 51
180.0
  0
ARC
  5
243
330
1F
100
AcDbEntity
  8
0
 62
     3
100
AcDbCircle
 10
17.99156171760514
 20
182.8436617772369
 30
0.0
 40
4.999999999999983
100
AcDbArc
 50
270.0
 51
360.0
  0
ARC
  5
244
330
1F
100
AcDbEntity
  8
0
 62
     3
100
AcDbCircle
 10
17.99156171760514
 20
212.8436617772368
 30
0.0
 40
4.999999999999983
100
AcDbArc
 50
0.0
 51
90.0
  0
ARC
  5
245
330
1F
100
AcDbEntity
  8
0
 62
     3
100
AcDbCircle
 10
27.99156171760431
 20
232.8436617772367
 30
0.0
 40
4.999999999999983
100
AcDbArc
 50
0.0
 51
90.0
  0
ARC
  5
246
330
1F
100
AcDbEntity
  8
0
 62
     3
100
AcDbCircle
 10
27.99156171760431
 20
162.843661777237
 30
0.0
 40
4.999999999999983
100
AcDbArc
 50
270.0
 51
360.0
  0
ARC
  5
247
330
1F
100
AcDbEntity
  8
0
 62
     3
100
AcDbCircle
 10
-15.00843828239469
 20
240.8436617772367
 30
0.0
 40
2.99999999999999
100
AcDbArc
 50
180.0
 51
270.0
  0
ARC
  5
248
330
1F
100
AcDbEntity
  8
0
 62
     3
100
AcDbCircle
 10
-15.00843828239469
 20
154.843661777237
 30
0.0
 40
2.99999999999999
100
AcDbArc
 50
90.0
 51
180.0
  0
ARC
  5
249
330
1F
100
AcDbEntity
  8
0
 62
     3
100
AcDbCircle
 10
35.99156171760428
 20
173.8436617772369
 30
0.0
 40
2.99999999999999
100
AcDbArc
 50
90.0
 51
180.0
  0
ARC
  5
24A
330
1F
100
AcDbEntity
  8
0
 62
     3
100
AcDbCircle
 10
35.99156171760428
 20
221.8436617772368
 30
0.0
 40
2.99999999999999
100
AcDbArc
 50
180.0
 51
270.0
  0
ARC
  5
24B
330
1F
100
AcDbEntity
  8
0
 62
     3
100
AcDbCircle
 10
-21.00843828239466
 20
256.8436617772367
 30
0.0
 40
2.99999999999999
100
AcDbArc
 50
0.0
 51
90.0
  0
ARC
  5
24C
330
1F
100
AcDbEntity
  8
0
 62
     3
100
AcDbCircle
 10
-21.00843828239466
 20
138.843661777237
 30
0.0
 40
2.99999999999999
100
AcDbArc
 50
270.0
 51
360.0
  0
LINE
  5
24D
330
1F
100
AcDbEntity
  8
0
 62
     3
100
AcDbLine
 10
35.99156171760599
 20
-86.21434931881507
 30
0.0
 11
35.99156171760599
 21
-121.214349318815
 31
0.0
  0
ARC
  5
24E
330
1F
100
AcDbEntity
  8
0
 62
     3
100
AcDbCircle
 10
35.99156171760514
 20
-83.2143493188151
 30
0.0
 40
2.99999999999999
100
AcDbArc
 50
180.0
 51
270.0
  0
LINE
  5
24F
330
1F
100
AcDbEntity
  8
0
 62
     3
100
AcDbLine
 10
-34.00843828239378
 20
-76.7143493188151
 30
0.0
 11
22.99156171760605
 21
-76.7143493188151
 31
0.0
  0
LINE
  5
250
330
1F
100
AcDbEntity
  8
0
 62
     3
100
AcDbLine
 10
29.99156171760517
 20
-79.7143493188151
 30
0.0
 11
-15.00843828239387
 21
-79.7143493188151
 31
0.0
  0
LINE
  5
251
330
1F
100
AcDbEntity
  8
0
 62
     3
100
AcDbLine
 10
32.99156171760517
 20
-82.7143493188151
 30
0.0
 11
32.99156171760517
 21
-121.214349318815
 31
0.0
  0
LINE
  5
252
330
1F
100
AcDbEntity
  8
0
 62
     3
100
AcDbLine
 10
-34.00843828239378
 20
-121.214349318815
 30
0.0
 11
62.49156171760889
 21
-121.214349318815
 31
0.0
  0
LINE
  5
253
330
1F
100
AcDbEntity
  8
0
 62
     3
100
AcDbLine
 10
16.99156171760693
 20
-121.214349318815
 30
0.0
 11
16.99156171760693
 21
-118.214349318815
 31
0.0
  0
LINE
  5
254
330
1F
100
AcDbEntity
  8
0
 62
     3
100
AcDbLine
 10
-18.00843828239384
 20
-77.6705992029155
 30
0.0
 11
-18.00843828239384
 21
-120.714349318815
 31
0.0
  0
ARC
  5
255
330
1F
100
AcDbEntity
  8
0
 62
     3
100
AcDbCircle
 10
29.99156171760517
 20
-82.7143493188151
 30
0.0
 40
2.99999999999999
100
AcDbArc
 50
0.0
 51
90.0
  0
ARC
  5
256
330
1F
100
AcDbEntity
  8
0
 62
     3
100
AcDbCircle
 10
25.99156171760605
 20
-76.7143493188151
 30
0.0
 40
2.99999999999999
100
AcDbArc
 50
180.0
 51
270.0
  0
ARC
  5
257
330
1F
100
AcDbEntity
  8
0
 62
     3
100
AcDbCircle
 10
-15.00843828239387
 20
-76.7143493188151
 30
0.0
 40
2.99999999999999
100
AcDbArc
 50
209.9999999999908
 51
270.0
  0
ARC
  5
258
330
1F
100
AcDbEntity
  8
0
 62
     3
100
AcDbCircle
 10
-20.20459070510047
 20
-79.71434931881512
 30
0.0
 40
2.99999999999999
100
AcDbArc
 50
30.00000000000961
 51
90.0
  0
LINE
  5
259
330
1F
100
AcDbEntity
  8
0
 62
     3
100
AcDbLine
 10
29.99156171760517
 20
-118.214349318815
 30
0.0
 11
14.99156171760693
 21
-118.214349318815
 31
0.0
  0
ARC
  5
25A
330
1F
100
AcDbEntity
  8
0
 62
     3
100
AcDbCircle
 10
29.99156171760517
 20
-115.214349318815
 30
0.0
 40
2.99999999999999
100
AcDbArc
 50
270.0
 51
360.0
  0
ARC
  5
25B
330
1F
100
AcDbEntity
  8
0
 62
     3
100
AcDbCircle
 10
14.99156171760693
 20
-121.214349318815
 30
0.0
 40
2.99999999999999
100
AcDbArc
 50
90.0
 51
170.4059317731406
  0
ARC
  5
25C
330
1F
100
AcDbEntity
  8
0
 62
     3
100
AcDbCircle
 10
53.99156171760806
 20
237.8436617772367
 30
0.0
 40
24.99999999999992
100
AcDbArc
 50
359.6063024597589
 51
90.0
  0
ARC
  5
25D
330
1F
100
AcDbEntity
  8
0
 62
     3
100
AcDbCircle
 10
53.99156171760716
 20
237.8436617772363
 30
0.0
 40
29.9999999999999
100
AcDbArc
 50
0.0
 51
90.0
  0
ARC
  5
25E
330
1F
100
AcDbEntity
  8
0
 62
     3
100
AcDbCircle
 10
53.99156171760716
 20
157.843661777237
 30
0.0
 40
29.9999999999999
100
AcDbArc
 50
270.0
 51
360.0
  0
ARC
  5
25F
330
1F
100
AcDbEntity
  8
0
 62
     3
100
AcDbCircle
 10
53.99156171760806
 20
157.843661777237
 30
0.0
 40
24.99999999999992
100
AcDbArc
 50
270.0
 51
359.606302459759
  0
LINE
  5
260
330
1F
100
AcDbEntity
  8
0
 62
     3
100
AcDbLine
 10
80.89348550625641
 20
186.8436617772369
 30
0.0
 11
35.99156171760514
 21
186.8436617772369
 31
0.0
  0
LINE
  5
261
330
1F
100
AcDbEntity
  8
0
 62
     3
100
AcDbLine
 10
35.99156171760514
 20
208.8436617772368
 30
0.0
 11
80.89348550625641
 21
208.8436617772368
 31
0.0
  0
LINE
  5
262
330
1F
100
AcDbEntity
  8
0
 62
     3
100
AcDbLine
 10
51.49156171760929
 20
208.8436617772368
 30
0.0
 11
51.49156171760929
 21
186.8436617772369
 31
0.0
  0
LINE
  5
263
330
1F
100
AcDbEntity
  8
0
 62
     3
100
AcDbLine
 10
45.99156171760934
 20
186.8436617772369
 30
0.0
 11
45.99156171760934
 21
208.8436617772368
 31
0.0
  0
LINE
  5
264
330
1F
100
AcDbEntity
  8
0
 62
     3
100
AcDbLine
 10
40.49156171760934
 20
186.8436617772369
 30
0.0
 11
40.49156171760934
 21
208.8436617772368
 31
0.0
  0
LINE
  5
265
330
1F
100
AcDbEntity
  8
0
 62
     3
100
AcDbLine
 10
131.991561717608
 20
189.3436617772368
 30
0.0
 11
131.991561717608
 21
206.3436617772364
 31
0.0
  0
LINE
  5
266
330
1F
100
AcDbEntity
  8
0
 62
     3
100
AcDbLine
 10
131.991561717608
 20
206.3436617772364
 30
0.0
 11
131.4915617176079
 21
206.8436617772367
 31
0.0
  0
LINE
  5
267
330
1F
100
AcDbEntity
  8
0
 62
     3
100
AcDbLine
 10
131.991561717608
 20
189.3436617772368
 30
0.0
 11
131.4915617176081
 21
188.8436617772368
 31
0.0
  0
LINE
  5
268
330
1F
100
AcDbEntity
  8
0
 62
     3
100
AcDbLine
 10
118.9915617176081
 20
206.8436617772367
 30
0.0
 11
131.4915617176079
 21
206.8436617772367
 31
0.0
  0
LINE
  5
269
330
1F
100
AcDbEntity
  8
0
 62
     3
100
AcDbLine
 10
118.9915617176081
 20
188.8436617772368
 30
0.0
 11
131.4915617176081
 21
188.8436617772368
 31
0.0
  0
LINE
  5
26A
330
1F
100
AcDbEntity
  8
0
 62
     3
100
AcDbLine
 10
118.9915617176081
 20
206.8436617772367
 30
0.0
 11
118.9915617176081
 21
188.8436617772368
 31
0.0
  0
LINE
  5
26B
330
1F
100
AcDbEntity
  8
0
 62
     3
100
AcDbLine
 10
118.9915617176081
 20
190.5936617772368
 30
0.0
 11
113.4915617176083
 21
190.5936617772368
 31
0.0
  0
LINE
  5
26C
330
1F
100
AcDbEntity
  8
0
 62
     3
100
AcDbLine
 10
118.9915617176081
 20
205.0936617772367
 30
0.0
 11
113.4915617176083
 21
205.0936617772367
 31
0.0
  0
LINE
  5
26D
330
1F
100
AcDbEntity
  8
0
 62
     3
100
AcDbLine
 10
113.4915617175713
 20
206.8436617772368
 30
0.0
 11
113.4915617176122
 21
188.8436617772369
 31
0.0
  0
LINE
  5
26E
330
1F
100
AcDbEntity
  8
0
 62
     3
100
AcDbLine
 10
131.4915617176079
 20
206.8436617772367
 30
0.0
 11
131.4915617176081
 21
188.8436617772368
 31
0.0
  0
LINE
  5
26F
330
1F
100
AcDbEntity
  8
0
 62
     3
100
AcDbLine
 10
125.3555227482869
 20
206.1365549960501
 30
0.0
 11
126.0626295294735
 21
206.8436617772367
 31
0.0
  0
LINE
  5
270
330
1F
100
AcDbEntity
  8
0
 62
     3
100
AcDbLine
 10
125.3555227482869
 20
204.722341433677
 30
0.0
 11
127.4768430918466
 21
206.8436617772367
 31
0.0
  0
LINE
  5
271
330
1F
100
AcDbEntity
  8
0
 62
     3
100
AcDbLine
 10
125.3555227482869
 20
203.3081278713039
 30
0.0
 11
128.8910566542197
 21
206.8436617772367
 31
0.0
  0
LINE
  5
272
330
1F
100
AcDbEntity
  8
0
 62
     3
100
AcDbLine
 10
125.3555227482869
 20
201.8939143089308
 30
0.0
 11
130.3052702165928
 21
206.8436617772367
 31
0.0
  0
LINE
  5
273
330
1F
100
AcDbEntity
  8
0
 62
     3
100
AcDbLine
 10
125.3555227482868
 20
200.4797007465576
 30
0.0
 11
131.491561717608
 21
206.6157397158788
 31
0.0
  0
LINE
  5
274
330
1F
100
AcDbEntity
  8
0
 62
     3
100
AcDbLine
 10
126.7697363106601
 20
200.4797007465577
 30
0.0
 11
131.491561717608
 21
205.2015261535057
 31
0.0
  0
LINE
  5
275
330
1F
100
AcDbEntity
  8
0
 62
     3
100
AcDbLine
 10
128.1839498730331
 20
200.4797007465577
 30
0.0
 11
131.491561717608
 21
203.7873125911327
 31
0.0
  0
LINE
  5
276
330
1F
100
AcDbEntity
  8
0
 62
     3
100
AcDbLine
 10
129.5981634354062
 20
200.4797007465577
 30
0.0
 11
131.491561717608
 21
202.3730990287595
 31
0.0
  0
LINE
  5
277
330
1F
100
AcDbEntity
  8
0
 62
     3
100
AcDbLine
 10
125.3555227482868
 20
201.8939143089309
 30
0.0
 11
126.7697363106601
 21
200.4797007465577
 31
0.0
  0
LINE
  5
278
330
1F
100
AcDbEntity
  8
0
 62
     3
100
AcDbLine
 10
125.3555227482869
 20
203.3081278713039
 30
0.0
 11
128.1839498730331
 21
200.4797007465578
 31
0.0
  0
LINE
  5
279
330
1F
100
AcDbEntity
  8
0
 62
     3
100
AcDbLine
 10
125.3555227482868
 20
204.7223414336771
 30
0.0
 11
129.5981634354062
 21
200.4797007465577
 31
0.0
  0
LINE
  5
27A
330
1F
100
AcDbEntity
  8
0
 62
     3
100
AcDbLine
 10
125.3555227482869
 20
206.1365549960501
 30
0.0
 11
131.0123769977794
 21
200.4797007465576
 31
0.0
  0
LINE
  5
27B
330
1F
100
AcDbEntity
  8
0
 62
     3
100
AcDbLine
 10
126.0626295294735
 20
206.8436617772367
 30
0.0
 11
131.4915617176081
 21
201.4147295891021
 31
0.0
  0
LINE
  5
27C
330
1F
100
AcDbEntity
  8
0
 62
     3
100
AcDbLine
 10
127.4768430918466
 20
206.8436617772367
 30
0.0
 11
131.491561717608
 21
202.8289431514752
 31
0.0
  0
LINE
  5
27D
330
1F
100
AcDbEntity
  8
0
 62
     3
100
AcDbLine
 10
128.8910566542197
 20
206.8436617772367
 30
0.0
 11
131.491561717608
 21
204.2431567138483
 31
0.0
  0
LINE
  5
27E
330
1F
100
AcDbEntity
  8
0
 62
     3
100
AcDbLine
 10
130.3052702165928
 20
206.8436617772367
 30
0.0
 11
131.491561717608
 21
205.6573702762215
 31
0.0
  0
LINE
  5
27F
330
1F
100
AcDbEntity
  8
0
 62
     3
100
AcDbLine
 10
113.4915617176122
 20
188.8436617772369
 30
0.0
 11
108.4915617176084
 21
188.8436617772369
 31
0.0
  0
LINE
  5
280
330
1F
100
AcDbEntity
  8
0
 62
     3
100
AcDbLine
 10
113.4915617175713
 20
206.8436617772368
 30
0.0
 11
108.4915617176084
 21
206.8436617772368
 31
0.0
  0
LINE
  5
281
330
1F
100
AcDbEntity
  8
0
 62
     3
100
AcDbLine
 10
83.49156171761003
 20
-96.21434931881504
 30
0.0
 11
83.49156171761003
 21
-118.214349318815
 31
0.0
  0
LINE
  5
282
330
1F
100
AcDbEntity
  8
0
 62
     3
100
AcDbLine
 10
83.49156171761003
 20
-118.214349318815
 30
0.0
 11
35.99156171760599
 21
-118.214349318815
 31
0.0
  0
LINE
  5
283
330
1F
100
AcDbEntity
  8
0
 62
     3
100
AcDbLine
 10
35.99156171760599
 20
-96.21434931881504
 30
0.0
 11
83.49156171761003
 21
-96.21434931881504
 31
0.0
  0
LINE
  5
284
330
1F
100
AcDbEntity
  8
0
 62
     3
100
AcDbLine
 10
108.4915617176091
 20
-116.214349318815
 30
0.0
 11
108.4915617176091
 21
-98.2143493188151
 31
0.0
  0
LINE
  5
285
330
1F
100
AcDbEntity
  8
0
 62
     3
100
AcDbLine
 10
51.49156171761014
 20
-96.21434931881504
 30
0.0
 11
51.49156171761014
 21
-118.214349318815
 31
0.0
  0
LINE
  5
286
330
1F
100
AcDbEntity
  8
0
 62
     3
100
AcDbLine
 10
45.9915617176102
 20
-118.214349318815
 30
0.0
 11
45.9915617176102
 21
-96.21434931881504
 31
0.0
  0
LINE
  5
287
330
1F
100
AcDbEntity
  8
0
 62
     3
100
AcDbLine
 10
40.4915617176102
 20
-118.214349318815
 30
0.0
 11
40.4915617176102
 21
-96.21434931881504
 31
0.0
  0
LINE
  5
288
330
1F
100
AcDbEntity
  8
0
 62
     3
100
AcDbLine
 10
107.9915661469851
 20
-97.71435374819103
 30
0.0
 11
108.4915617176091
 21
-98.2143493188151
 31
0.0
  0
LINE
  5
289
330
1F
100
AcDbEntity
  8
0
 62
     3
100
AcDbLine
 10
131.9915617176089
 20
-115.7143493188151
 30
0.0
 11
131.9915617176089
 21
-98.71434931881544
 31
0.0
  0
LINE
  5
28A
330
1F
100
AcDbEntity
  8
0
 62
     3
100
AcDbLine
 10
131.9915617176089
 20
-98.71434931881544
 30
0.0
 11
131.4915617176088
 21
-98.21434931881521
 31
0.0
  0
LINE
  5
28B
330
1F
100
AcDbEntity
  8
0
 62
     3
100
AcDbLine
 10
131.9915617176089
 20
-115.7143493188151
 30
0.0
 11
131.4915617176089
 21
-116.2143493188151
 31
0.0
  0
LINE
  5
28C
330
1F
100
AcDbEntity
  8
0
 62
     3
100
AcDbLine
 10
118.991561717609
 20
-98.21434931881521
 30
0.0
 11
131.4915617176088
 21
-98.21434931881521
 31
0.0
  0
LINE
  5
28D
330
1F
100
AcDbEntity
  8
0
 62
     3
100
AcDbLine
 10
118.991561717609
 20
-116.2143493188151
 30
0.0
 11
131.4915617176089
 21
-116.2143493188151
 31
0.0
  0
LINE
  5
28E
330
1F
100
AcDbEntity
  8
0
 62
     3
100
AcDbLine
 10
118.991561717609
 20
-98.21434931881521
 30
0.0
 11
118.991561717609
 21
-116.2143493188151
 31
0.0
  0
LINE
  5
28F
330
1F
100
AcDbEntity
  8
0
 62
     3
100
AcDbLine
 10
118.991561717609
 20
-114.4643493188151
 30
0.0
 11
113.4915617176092
 21
-114.4643493188151
 31
0.0
  0
LINE
  5
290
330
1F
100
AcDbEntity
  8
0
 62
     3
100
AcDbLine
 10
118.991561717609
 20
-99.96434931881521
 30
0.0
 11
113.4915617176092
 21
-99.96434931881521
 31
0.0
  0
LINE
  5
291
330
1F
100
AcDbEntity
  8
0
 62
     3
100
AcDbLine
 10
113.4915617175721
 20
-98.2143493188151
 30
0.0
 11
113.4915617176131
 21
-116.214349318815
 31
0.0
  0
LINE
  5
292
330
1F
100
AcDbEntity
  8
0
 62
     3
100
AcDbLine
 10
131.4915617176088
 20
-98.21434931881521
 30
0.0
 11
131.4915617176089
 21
-116.2143493188151
 31
0.0
  0
LINE
  5
293
330
1F
100
AcDbEntity
  8
0
 62
     3
100
AcDbLine
 10
125.3555227482878
 20
-98.92145610000176
 30
0.0
 11
126.0626295294744
 21
-98.21434931881521
 31
0.0
  0
LINE
  5
294
330
1F
100
AcDbEntity
  8
0
 62
     3
100
AcDbLine
 10
125.3555227482878
 20
-100.3356696623749
 30
0.0
 11
127.4768430918475
 21
-98.21434931881521
 31
0.0
  0
LINE
  5
295
330
1F
100
AcDbEntity
  8
0
 62
     3
100
AcDbLine
 10
125.3555227482878
 20
-101.749883224748
 30
0.0
 11
128.8910566542206
 21
-98.21434931881521
 31
0.0
  0
LINE
  5
296
330
1F
100
AcDbEntity
  8
0
 62
     3
100
AcDbLine
 10
125.3555227482878
 20
-103.1640967871211
 30
0.0
 11
130.3052702165936
 21
-98.21434931881521
 31
0.0
  0
LINE
  5
297
330
1F
100
AcDbEntity
  8
0
 62
     3
100
AcDbLine
 10
125.3555227482877
 20
-104.5783103494943
 30
0.0
 11
131.4915617176089
 21
-98.44227138017305
 31
0.0
  0
LINE
  5
298
330
1F
100
AcDbEntity
  8
0
 62
     3
100
AcDbLine
 10
126.7697363106609
 20
-104.5783103494942
 30
0.0
 11
131.4915617176089
 21
-99.85648494254616
 31
0.0
  0
LINE
  5
299
330
1F
100
AcDbEntity
  8
0
 62
     3
100
AcDbLine
 10
128.183949873034
 20
-104.5783103494942
 30
0.0
 11
131.4915617176089
 21
-101.2706985049191
 31
0.0
  0
LINE
  5
29A
330
1F
100
AcDbEntity
  8
0
 62
     3
100
AcDbLine
 10
129.5981634354071
 20
-104.5783103494942
 30
0.0
 11
131.4915617176089
 21
-102.6849120672923
 31
0.0
  0
LINE
  5
29B
330
1F
100
AcDbEntity
  8
0
 62
     3
100
AcDbLine
 10
125.3555227482877
 20
-103.1640967871209
 30
0.0
 11
126.7697363106609
 21
-104.5783103494942
 31
0.0
  0
LINE
  5
29C
330
1F
100
AcDbEntity
  8
0
 62
     3
100
AcDbLine
 10
125.3555227482878
 20
-101.749883224748
 30
0.0
 11
128.183949873034
 21
-104.5783103494941
 31
0.0
  0
LINE
  5
29D
330
1F
100
AcDbEntity
  8
0
 62
     3
100
AcDbLine
 10
125.3555227482877
 20
-100.3356696623748
 30
0.0
 11
129.5981634354071
 21
-104.5783103494942
 31
0.0
  0
LINE
  5
29E
330
1F
100
AcDbEntity
  8
0
 62
     3
100
AcDbLine
 10
125.3555227482878
 20
-98.92145610000176
 30
0.0
 11
131.0123769977803
 21
-104.5783103494943
 31
0.0
  0
LINE
  5
29F
330
1F
100
AcDbEntity
  8
0
 62
     3
100
AcDbLine
 10
126.0626295294744
 20
-98.21434931881521
 30
0.0
 11
131.4915617176089
 21
-103.6432815069498
 31
0.0
  0
LINE
  5
2A0
330
1F
100
AcDbEntity
  8
0
 62
     3
100
AcDbLine
 10
127.4768430918475
 20
-98.21434931881521
 30
0.0
 11
131.4915617176089
 21
-102.2290679445767
 31
0.0
  0
LINE
  5
2A1
330
1F
100
AcDbEntity
  8
0
 62
     3
100
AcDbLine
 10
128.8910566542205
 20
-98.21434931881521
 30
0.0
 11
131.4915617176089
 21
-100.8148543822036
 31
0.0
  0
LINE
  5
2A2
330
1F
100
AcDbEntity
  8
0
 62
     3
100
AcDbLine
 10
130.3052702165936
 20
-98.21434931881521
 30
0.0
 11
131.4915617176089
 21
-99.40064081983036
 31
0.0
  0
LINE
  5
2A3
330
1F
100
AcDbEntity
  8
0
 62
     3
100
AcDbLine
 10
113.4915617176131
 20
-116.214349318815
 30
0.0
 11
108.4915617176092
 21
-116.214349318815
 31
0.0
  0
LINE
  5
2A4
330
1F
100
AcDbEntity
  8
0
 62
     3
100
AcDbLine
 10
113.4915617175721
 20
-98.2143493188151
 30
0.0
 11
108.4915617176092
 21
-98.2143493188151
 31
0.0
  0
ARC
  5
2A5
330
1F
100
AcDbEntity
  8
0
 62
     3
100
AcDbCircle
 10
-410.3352800422462
 20
-104.8064633411922
 30
0.0
 40
10.0
100
AcDbArc
 50
119.9999999999988
 51
175.0000000000001
  0
ARC
  5
2A6
330
1F
100
AcDbEntity
  8
0
 62
     3
100
AcDbCircle
 10
-383.3289463580802
 20
-89.21434931881501
 30
0.0
 40
10.0
100
AcDbArc
 50
90.0
 51
119.9999999999986
  0
LINE
  5
2A7
330
1F
100
AcDbEntity
  8
0
 62
     3
100
AcDbLine
 10
-418.5396565159492
 20
-146.2143493188149
 30
0.0
 11
-361.5084392552569
 21
-146.2143493188149
 31
0.0
  0
LINE
  5
2A8
330
1F
100
AcDbEntity
  8
0
 62
     3
100
AcDbLine
 10
-366.0084382823923
 20
-136.2143493188149
 30
0.0
 11
-366.0084382823923
 21
-143.2218541231298
 31
0.0
  0
LINE
  5
2A9
330
1F
100
AcDbEntity
  8
0
 62
     3
100
AcDbLine
 10
-356.5084382823925
 20
-149.2143493188148
 30
0.0
 11
-356.5084382823925
 21
-169.2143493188148
 31
0.0
  0
LINE
  5
2AA
330
1F
100
AcDbEntity
  8
0
 62
     3
100
AcDbLine
 10
-349.0084382823925
 20
-135.799007162098
 30
0.0
 11
-349.0084382823925
 21
-169.2143493188148
 31
0.0
  0
ARC
  5
2AB
330
1F
100
AcDbEntity
  8
0
 62
     3
100
AcDbCircle
 10
-418.5396565159492
 20
-141.2143493188149
 30
0.0
 40
5.0
100
AcDbArc
 50
174.9999999999999
 51
270.0
  0
ELLIPSE
  5
2AC
330
1F
100
AcDbEntity
  8
0
 62
     3
100
AcDbEllipse
 10
-361.0084382823923
 20
-136.2143493188149
 30
0.0
 11
5.0
 21
0.0
 31
0.0
210
0.0
220
0.0
230
1.0
 40
0.6
 41
1.570796326794297
 42
3.141592653589793
  0
ELLIPSE
  5
2AD
330
1F
100
AcDbEntity
  8
0
 62
     3
100
AcDbEllipse
 10
-361.0084382823923
 20
-143.2218541231298
 30
0.0
 11
5.0
 21
0.0
 31
0.0
210
0.0
220
0.0
230
1.0
 40
0.6
 41
3.141592653589793
 42
4.662560309786667
  0
ELLIPSE
  5
2AE
330
1F
100
AcDbEntity
  8
0
 62
     3
100
AcDbEllipse
 10
-361.5084382823925
 20
-149.2143493188148
 30
0.0
 11
-5.0
 21
0.0
 31
0.0
210
0.0
220
0.0
230
1.0
 40
0.6
 41
3.141592653589793
 42
4.71238898038529
  0
ELLIPSE
  5
2AF
330
1F
100
AcDbEntity
  8
0
 62
     3
100
AcDbEllipse
 10
-344.0084382823925
 20
-135.7990071620981
 30
0.0
 11
5.0
 21
0.0
 31
0.0
210
0.0
220
0.0
230
1.0
 40
0.6
 41
2.032687314760828
 42
3.141592653589793
  0
ARC
  5
2B0
330
1F
100
AcDbEntity
  8
0
 62
     3
100
AcDbCircle
 10
-347.0084382823916
 20
-130.2143493188149
 30
0.0
 40
3.0
100
AcDbArc
 50
270.0
 51
360.0
  0
LINE
  5
2B1
330
1F
100
AcDbEntity
  8
0
 62
     3
100
AcDbLine
 10
-319.0084382823924
 20
-121.214349318815
 30
0.0
 11
-319.0084382823924
 21
-124.214349318815
 31
0.0
  0
ARC
  5
2B2
330
1F
100
AcDbEntity
  8
0
 62
     3
100
AcDbCircle
 10
-297.6542817783299
 20
-111.2143493188149
 30
0.0
 40
25.0
100
AcDbArc
 50
211.3322514975947
 51
241.6423634236722
  0
LINE
  5
2B3
330
1F
100
AcDbEntity
  8
0
 62
     3
100
AcDbLine
 10
-315.6542817783299
 20
-130.2143493188149
 30
0.0
 11
-340.7634402839932
 21
-130.2143493188149
 31
0.0
  0
ARC
  5
2B4
330
1F
100
AcDbEntity
  8
0
 62
     3
100
AcDbCircle
 10
-315.6542817783299
 20
-135.2143493188149
 30
0.0
 40
5.0
100
AcDbArc
 50
53.13010235415597
 51
90.0
  0
ARC
  5
2B5
330
1F
100
AcDbEntity
  8
0
 62
     3
100
AcDbCircle
 10
-340.7634402839932
 20
-135.2143493188149
 30
0.0
 40
5.0
100
AcDbArc
 50
90.0
 51
141.3178125465106
  0
LINE
  5
2B6
330
1F
100
AcDbEntity
  8
0
 62
     3
100
AcDbLine
 10
-246.0084382823927
 20
-169.2143493188148
 30
0.0
 11
-243.4103620710395
 21
-173.7143493188147
 31
0.0
  0
ARC
  5
2B7
330
1F
100
AcDbEntity
  8
0
 62
     3
100
AcDbCircle
 10
-240.8122858596861
 20
-172.2143493188147
 30
0.0
 40
3.0
100
AcDbArc
 50
210.0
 51
270.0
  0
LINE
  5
2B8
330
1F
100
AcDbEntity
  8
0
 62
     3
100
AcDbLine
 10
-278.0084382823926
 20
-169.2143493188148
 30
0.0
 11
-280.6065144937459
 21
-173.7143493188147
 31
0.0
  0
ARC
  5
2B9
330
1F
100
AcDbEntity
  8
0
 62
     3
100
AcDbCircle
 10
-283.2045907050992
 20
-172.2143493188147
 30
0.0
 40
3.0
100
AcDbArc
 50
270.0
 51
330.0
  0
LINE
  5
2BA
330
1F
100
AcDbEntity
  8
0
 62
     3
100
AcDbLine
 10
-281.5084382823926
 20
113.1727489122009
 30
0.0
 11
-281.5084382823926
 21
125.3436617772371
 31
0.0
  0
ARC
  5
2BB
330
1F
100
AcDbEntity
  8
0
 62
     3
100
AcDbCircle
 10
-262.0084382823927
 20
125.3436617772371
 30
0.0
 40
19.49999999999995
100
AcDbArc
 50
360.0
 51
180.0
  0
ARC
  5
2BC
330
1F
100
AcDbEntity
  8
0
 62
     3
100
AcDbCircle
 10
-262.0084382823927
 20
270.3436617772366
 30
0.0
 40
19.49999999999995
100
AcDbArc
 50
180.0
 51
360.0
  0
ARC
  5
2BD
330
1F
100
AcDbEntity
  8
0
 62
     3
100
AcDbCircle
 10
-286.5084382823926
 20
113.1727489122009
 30
0.0
 40
5.0
100
AcDbArc
 50
315.0
 51
360.0
  0
LINE
  5
2BE
330
1F
100
AcDbEntity
  8
0
 62
     3
100
AcDbLine
 10
-242.5084382823944
 20
113.1727489122009
 30
0.0
 11
-242.5084382823944
 21
125.3436617772371
 31
0.0
  0
ARC
  5
2BF
330
1F
100
AcDbEntity
  8
0
 62
     3
100
AcDbCircle
 10
-237.5084382823944
 20
113.1727489122009
 30
0.0
 40
5.0
100
AcDbArc
 50
180.0
 51
225.0
  0
LINE
  5
2C0
330
1F
100
AcDbEntity
  8
0
 62
     3
100
AcDbLine
 10
-242.5084382823944
 20
282.5145746422727
 30
0.0
 11
-242.5084382823944
 21
270.3436617772366
 31
0.0
  0
ARC
  5
2C1
330
1F
100
AcDbEntity
  8
0
 62
     3
100
AcDbCircle
 10
-237.5084382823944
 20
282.5145746422727
 30
0.0
 40
5.0
100
AcDbArc
 50
135.0
 51
180.0
  0
LINE
  5
2C2
330
1F
100
AcDbEntity
  8
0
 62
     3
100
AcDbLine
 10
-281.5084382823926
 20
282.5145746422727
 30
0.0
 11
-281.5084382823926
 21
270.3436617772366
 31
0.0
  0
ARC
  5
2C3
330
1F
100
AcDbEntity
  8
0
 62
     3
100
AcDbCircle
 10
-286.5084382823926
 20
282.5145746422727
 30
0.0
 40
5.0
100
AcDbArc
 50
0.0
 51
45.0
  0
LINE
  5
2C4
330
1F
100
AcDbEntity
  8
0
 62
     3
100
AcDbLine
 10
63.99156171760889
 20
246.3436617772367
 30
0.0
 11
-18.00843828239466
 21
246.3436617772367
 31
0.0
  0
LINE
  5
2C5
330
1F
100
AcDbEntity
  8
0
 62
     3
100
AcDbLine
 10
-209.0084382823916
 20
246.3436617772367
 30
0.0
 11
-319.0084382823924
 21
246.3436617772367
 31
0.0
  0
LINE
  5
2C6
330
1F
100
AcDbEntity
  8
0
 62
     3
100
AcDbLine
 10
-319.0084382823924
 20
221.9436617772367
 30
0.0
 11
-209.0084382823916
 21
221.9436617772367
 31
0.0
  0
LINE
  5
2C7
330
1F
100
AcDbEntity
  8
0
 62
     3
100
AcDbLine
 10
32.99156171760431
 20
221.9436617772367
 30
0.0
 11
63.99156171760892
 21
221.9436617772367
 31
0.0
  0
LINE
  5
2C8
330
1F
100
AcDbEntity
  8
0
 62
     3
100
AcDbLine
 10
63.99156171760889
 20
173.7436617772369
 30
0.0
 11
32.99156171760431
 21
173.7436617772369
 31
0.0
  0
LINE
  5
2C9
330
1F
100
AcDbEntity
  8
0
 62
     3
100
AcDbLine
 10
-209.0084382823916
 20
173.7436617772369
 30
0.0
 11
-319.0084382823924
 21
173.7436617772369
 31
0.0
  0
LINE
  5
2CA
330
1F
100
AcDbEntity
  8
0
 62
     3
100
AcDbLine
 10
63.99156171760889
 20
149.343661777237
 30
0.0
 11
-18.00843828239466
 21
149.343661777237
 31
0.0
  0
LINE
  5
2CB
330
1F
100
AcDbEntity
  8
0
 62
     3
100
AcDbLine
 10
-209.0084382823916
 20
149.343661777237
 30
0.0
 11
-319.0084382823924
 21
149.343661777237
 31
0.0
  0
LINE
  5
2CC
330
1F
100
AcDbEntity
  8
0
 62
     3
100
AcDbLine
 10
63.99156171760889
 20
149.343661777237
 30
0.0
 11
63.99156171760889
 21
186.8436617772369
 31
0.0
  0
LINE
  5
2CD
330
1F
100
AcDbEntity
  8
0
 62
     3
100
AcDbLine
 10
63.99156171760889
 20
208.8436617772368
 30
0.0
 11
63.99156171760889
 21
246.3436617772367
 31
0.0
  0
LINE
  5
2CE
330
1F
100
AcDbEntity
  8
0
 62
     3
100
AcDbLine
 10
78.9909715322345
 20
237.6718801706675
 30
0.0
 11
78.9909715322345
 21
208.8436617772368
 31
0.0
  0
LINE
  5
2CF
330
1F
100
AcDbEntity
  8
0
 62
     3
100
AcDbLine
 10
78.9909715322345
 20
186.8436617772369
 30
0.0
 11
78.9909715322345
 21
157.6718801706678
 31
0.0
  0
LINE
  5
2D0
330
1F
100
AcDbEntity
  8
0
 62
     3
100
AcDbLine
 10
83.99156171760707
 20
237.8436617772363
 30
0.0
 11
83.99156171760707
 21
208.8436617772368
 31
0.0
  0
LINE
  5
2D1
330
1F
100
AcDbEntity
  8
0
 62
     3
100
AcDbLine
 10
83.99156171760707
 20
186.8436617772369
 30
0.0
 11
83.99156171760707
 21
157.843661777237
 31
0.0
  0
LINE
  5
2D2
330
1F
100
AcDbEntity
  8
0
 62
     3
100
AcDbLine
 10
302.7017843828367
 20
-193.2143493188147
 30
0.0
 11
487.13217448186
 21
-193.2143493188147
 31
0.0
  0
LINE
  5
2D3
330
1F
100
AcDbEntity
  8
0
 62
     3
100
AcDbLine
 10
302.7017843828367
 20
-193.2143493188147
 30
0.0
 11
302.7017843828367
 21
-169.2143493188148
 31
0.0
  0
LINE
  5
2D4
330
1F
100
AcDbEntity
  8
0
 62
     3
100
AcDbLine
 10
346.4169794323485
 20
-121.214349318815
 30
0.0
 11
346.4169794323485
 21
-133.214349318815
 31
0.0
  0
LINE
  5
2D5
330
1F
100
AcDbEntity
  8
0
 62
     3
100
AcDbLine
 10
302.7017843828367
 20
-169.2143493188148
 30
0.0
 11
369.9169794323485
 21
-169.2143493188148
 31
0.0
  0
LINE
  5
2D6
330
1F
100
AcDbEntity
  8
0
 62
     3
100
AcDbLine
 10
370.9169794323483
 20
-122.714349318815
 30
0.0
 11
370.9169794323483
 21
-170.2143493188147
 31
0.0
  0
LINE
  5
2D7
330
1F
100
AcDbEntity
  8
0
 62
     3
100
AcDbLine
 10
372.9169794323483
 20
-172.2143493188147
 30
0.0
 11
416.9169794323483
 21
-172.2143493188147
 31
0.0
  0
LINE
  5
2D8
330
1F
100
AcDbEntity
  8
0
 62
     3
100
AcDbLine
 10
369.9169794323485
 20
-169.2143493188148
 30
0.0
 11
372.9169794323483
 21
-172.2143493188147
 31
0.0
  0
LINE
  5
2D9
330
1F
100
AcDbEntity
  8
0
 62
     3
100
AcDbLine
 10
332.4169794323483
 20
-133.214349318815
 30
0.0
 11
354.9169794323483
 21
-133.214349318815
 31
0.0
  0
LINE
  5
2DA
330
1F
100
AcDbEntity
  8
0
 62
     3
100
AcDbLine
 10
354.9169794323483
 20
-133.214349318815
 30
0.0
 11
354.9169794323483
 21
-146.5143493188147
 31
0.0
  0
LINE
  5
2DB
330
1F
100
AcDbEntity
  8
0
 62
     3
100
AcDbLine
 10
352.4169794323483
 20
-145.214349318815
 30
0.0
 11
352.4169794323483
 21
-165.5693912667425
 31
0.0
  0
LINE
  5
2DC
330
1F
100
AcDbEntity
  8
0
 62
     3
100
AcDbLine
 10
352.4169794323483
 20
-146.5143493188147
 30
0.0
 11
354.9169794323483
 21
-146.5143493188147
 31
0.0
  0
LINE
  5
2DD
330
1F
100
AcDbEntity
  8
0
 62
     3
100
AcDbLine
 10
332.4169794323483
 20
-77.21434931881495
 30
0.0
 11
332.4169794323483
 21
-145.214349318815
 31
0.0
  0
ARC
  5
2DE
330
1F
100
AcDbEntity
  8
0
 62
     3
100
AcDbCircle
 10
340.4169794323483
 20
-141.5143493188149
 30
0.0
 40
5.0
100
AcDbArc
 50
227.7314155704286
 51
267.1340160174011
  0
LINE
  5
2DF
330
1F
100
AcDbEntity
  8
0
 62
     3
100
AcDbLine
 10
344.9169794323483
 20
-151.501841496534
 30
0.0
 11
344.9169794323483
 21
-165.6940930976683
 31
0.0
  0
ARC
  5
2E0
330
1F
100
AcDbEntity
  8
0
 62
     3
100
AcDbCircle
 10
339.9169794323483
 20
-151.501841496534
 30
0.0
 40
5.0
100
AcDbArc
 50
0.0
 51
87.13401601740115
  0
LINE
  5
2E1
330
1F
100
AcDbEntity
  8
0
 62
     3
100
AcDbLine
 10
304.7017843828367
 20
-175.2143493188147
 30
0.0
 11
311.0426799329239
 21
-175.2143493188147
 31
0.0
  0
ARC
  5
2E2
330
1F
100
AcDbEntity
  8
0
 62
     3
100
AcDbCircle
 10
304.7017843828367
 20
-177.2143493188147
 30
0.0
 40
2.0
100
AcDbArc
 50
90.0
 51
180.0
  0
ARC
  5
2E3
330
1F
100
AcDbEntity
  8
0
 62
     3
100
AcDbCircle
 10
304.7017843828367
 20
-173.2143493188147
 30
0.0
 40
2.0
100
AcDbArc
 50
224.9999999999994
 51
270.0
  0
ARC
  5
2E4
330
1F
100
AcDbEntity
  8
0
 62
     3
100
AcDbCircle
 10
314.0426799329239
 20
-171.2143493188148
 30
0.0
 40
2.0
100
AcDbArc
 50
90.0
 51
180.0
  0
ELLIPSE
  5
2E5
330
1F
100
AcDbEntity
  8
0
 62
     3
100
AcDbEllipse
 10
311.0426799329239
 20
-173.2143493188148
 30
0.0
 11
0.0
 21
2.0
 31
0.0
210
0.0
220
0.0
230
1.0
 40
0.5
 41
3.141592653589793
 42
4.71238898038519
  0
LINE
  5
2E6
330
1F
100
AcDbEntity
  8
0
 62
     3
100
AcDbLine
 10
312.0426799329239
 20
-171.2143493188148
 30
0.0
 11
312.0426799329239
 21
-173.2143493188148
 31
0.0
  0
LINE
  5
2E7
330
1F
100
AcDbEntity
  8
0
 62
     3
100
AcDbLine
 10
456.4169794323483
 20
-76.21434931881495
 30
0.0
 11
333.4169794323483
 21
-76.21434931881495
 31
0.0
  0
CIRCLE
  5
2E8
330
1F
100
AcDbEntity
  8
0
 62
     3
100
AcDbCircle
 10
394.9169794323483
 20
-107.214349318815
 30
0.0
 40
21.0
  0
CIRCLE
  5
2E9
330
1F
100
AcDbEntity
  8
0
 62
     3
100
AcDbCircle
 10
394.9169794323483
 20
-107.214349318815
 30
0.0
 40
16.0
  0
LINE
  5
2EA
330
1F
100
AcDbEntity
  8
0
 62
     3
100
AcDbLine
 10
354.9169794323483
 20
-120.714349318815
 30
0.0
 11
354.9169794323483
 21
-94.71434931881495
 31
0.0
  0
LINE
  5
2EB
330
1F
100
AcDbEntity
  8
0
 62
     3
100
AcDbLine
 10
369.9169794323483
 20
-79.71434931881495
 30
0.0
 11
419.9169794323483
 21
-79.71434931881495
 31
0.0
  0
ARC
  5
2EC
330
1F
100
AcDbEntity
  8
0
 62
     3
100
AcDbCircle
 10
369.9169794323483
 20
-94.71434931881495
 30
0.0
 40
15.0
100
AcDbArc
 50
90.0
 51
180.0
  0
ARC
  5
2ED
330
1F
100
AcDbEntity
  8
0
 62
     3
100
AcDbCircle
 10
371.9169794323483
 20
-76.71434931881495
 30
0.0
 40
3.0
100
AcDbArc
 50
270.0
 51
360.0
  0
LINE
  5
2EE
330
1F
100
AcDbEntity
  8
0
 62
     3
100
AcDbLine
 10
361.9169794323483
 20
-120.714349318815
 30
0.0
 11
361.9169794323483
 21
-118.214349318815
 31
0.0
  0
LINE
  5
2EF
330
1F
100
AcDbEntity
  8
0
 62
     3
100
AcDbLine
 10
356.9169794323483
 20
-118.214349318815
 30
0.0
 11
370.9169794323483
 21
-118.214349318815
 31
0.0
  0
ARC
  5
2F0
330
1F
100
AcDbEntity
  8
0
 62
     3
100
AcDbCircle
 10
394.9169794323483
 20
-107.214349318815
 30
0.0
 40
26.0
100
AcDbArc
 50
217.6584620062078
 51
322.3415379937921
  0
LINE
  5
2F1
330
1F
100
AcDbEntity
  8
0
 62
     3
100
AcDbLine
 10
373.9169794323483
 20
-121.214349318815
 30
0.0
 11
373.9169794323483
 21
-121.8772276174301
 31
0.0
  0
ARC
  5
2F2
330
1F
100
AcDbEntity
  8
0
 62
     3
100
AcDbCircle
 10
356.9169794323483
 20
-116.214349318815
 30
0.0
 40
2.0
100
AcDbArc
 50
180.0
 51
270.0
  0
ARC
  5
2F3
330
1F
100
AcDbEntity
  8
0
 62
     3
100
AcDbCircle
 10
370.9169794323483
 20
-121.214349318815
 30
0.0
 40
3.0
100
AcDbArc
 50
0.0
 51
90.0
  0
ARC
  5
2F4
330
1F
100
AcDbEntity
  8
0
 62
     3
100
AcDbCircle
 10
375.9169794323483
 20
-121.8772276174301
 30
0.0
 40
2.0
100
AcDbArc
 50
180.0
 51
217.6584620062079
  0
LINE
  5
2F5
330
1F
100
AcDbEntity
  8
0
 62
     3
100
AcDbLine
 10
332.4169794323483
 20
-145.214349318815
 30
0.0
 11
354.4169794323483
 21
-145.214349318815
 31
0.0
  0
LINE
  5
2F6
330
1F
100
AcDbEntity
  8
0
 62
     3
100
AcDbLine
 10
354.4169794323483
 20
-145.214349318815
 30
0.0
 11
354.4169794323483
 21
-133.214349318815
 31
0.0
  0
LINE
  5
2F7
330
1F
100
AcDbEntity
  8
0
 62
     3
100
AcDbLine
 10
331.4169794323483
 20
-75.21434931881495
 30
0.0
 11
458.4169794323483
 21
-75.21434931881495
 31
0.0
  0
LINE
  5
2F8
330
1F
100
AcDbEntity
  8
0
 62
     3
100
AcDbLine
 10
330.4169794323483
 20
-76.21434931881495
 30
0.0
 11
330.4169794323483
 21
-120.214349318815
 31
0.0
  0
LINE
  5
2F9
330
1F
100
AcDbEntity
  8
0
 62
     3
100
AcDbLine
 10
331.4169794323483
 20
-75.21434931881495
 30
0.0
 11
330.4169794323483
 21
-76.21434931881495
 31
0.0
  0
LINE
  5
2FA
330
1F
100
AcDbEntity
  8
0
 62
     3
100
AcDbLine
 10
331.4169794323483
 20
-121.214349318815
 30
0.0
 11
330.4169794323483
 21
-120.214349318815
 31
0.0
  0
LINE
  5
2FB
330
1F
100
AcDbEntity
  8
0
 62
     3
100
AcDbLine
 10
487.13217448186
 20
-193.2143493188147
 30
0.0
 11
487.13217448186
 21
-169.2143493188148
 31
0.0
  0
LINE
  5
2FC
330
1F
100
AcDbEntity
  8
0
 62
     3
100
AcDbLine
 10
443.4169794323482
 20
-121.214349318815
 30
0.0
 11
443.4169794323482
 21
-133.214349318815
 31
0.0
  0
LINE
  5
2FD
330
1F
100
AcDbEntity
  8
0
 62
     3
100
AcDbLine
 10
487.13217448186
 20
-169.2143493188148
 30
0.0
 11
419.9169794323482
 21
-169.2143493188148
 31
0.0
  0
LINE
  5
2FE
330
1F
100
AcDbEntity
  8
0
 62
     3
100
AcDbLine
 10
418.9169794323483
 20
-122.714349318815
 30
0.0
 11
418.9169794323483
 21
-170.2143493188147
 31
0.0
  0
LINE
  5
2FF
330
1F
100
AcDbEntity
  8
0
 62
     3
100
AcDbLine
 10
419.9169794323482
 20
-169.2143493188148
 30
0.0
 11
416.9169794323483
 21
-172.2143493188147
 31
0.0
  0
LINE
  5
300
330
1F
100
AcDbEntity
  8
0
 62
     3
100
AcDbLine
 10
457.4169794323483
 20
-133.214349318815
 30
0.0
 11
434.9169794323483
 21
-133.214349318815
 31
0.0
  0
LINE
  5
301
330
1F
100
AcDbEntity
  8
0
 62
     3
100
AcDbLine
 10
434.9169794323483
 20
-133.214349318815
 30
0.0
 11
434.9169794323483
 21
-146.5143493188147
 31
0.0
  0
LINE
  5
302
330
1F
100
AcDbEntity
  8
0
 62
     3
100
AcDbLine
 10
437.4169794323483
 20
-145.214349318815
 30
0.0
 11
437.4169794323483
 21
-165.5693912667425
 31
0.0
  0
LINE
  5
303
330
1F
100
AcDbEntity
  8
0
 62
     3
100
AcDbLine
 10
437.4169794323483
 20
-146.5143493188147
 30
0.0
 11
434.9169794323483
 21
-146.5143493188147
 31
0.0
  0
LINE
  5
304
330
1F
100
AcDbEntity
  8
0
 62
     3
100
AcDbLine
 10
457.4169794323483
 20
-77.21434931881495
 30
0.0
 11
457.4169794323483
 21
-145.214349318815
 31
0.0
  0
ARC
  5
305
330
1F
100
AcDbEntity
  8
0
 62
     3
100
AcDbCircle
 10
449.4169794323483
 20
-141.5143493188149
 30
0.0
 40
5.0
100
AcDbArc
 50
272.8659839825989
 51
312.2685844295714
  0
LINE
  5
306
330
1F
100
AcDbEntity
  8
0
 62
     3
100
AcDbLine
 10
444.9169794323483
 20
-161.8402055769381
 30
0.0
 11
444.9169794323483
 21
-165.6940930976683
 31
0.0
  0
ARC
  5
307
330
1F
100
AcDbEntity
  8
0
 62
     3
100
AcDbCircle
 10
449.9169794323483
 20
-151.501841496534
 30
0.0
 40
5.0
100
AcDbArc
 50
92.86598398259886
 51
169.7043652478224
  0
LINE
  5
308
330
1F
100
AcDbEntity
  8
0
 62
     3
100
AcDbLine
 10
485.13217448186
 20
-175.2143493188147
 30
0.0
 11
478.7912789317728
 21
-175.2143493188147
 31
0.0
  0
ARC
  5
309
330
1F
100
AcDbEntity
  8
0
 62
     3
100
AcDbCircle
 10
485.13217448186
 20
-177.2143493188147
 30
0.0
 40
2.0
100
AcDbArc
 50
0.000000000000007
 51
90.00000000000001
  0
ARC
  5
30A
330
1F
100
AcDbEntity
  8
0
 62
     3
100
AcDbCircle
 10
485.13217448186
 20
-173.2143493188147
 30
0.0
 40
2.0
100
AcDbArc
 50
270.0
 51
315.0000000000006
  0
ARC
  5
30B
330
1F
100
AcDbEntity
  8
0
 62
     3
100
AcDbCircle
 10
475.7912789317728
 20
-171.2143493188148
 30
0.0
 40
2.0
100
AcDbArc
 50
0.000000000000007
 51
90.00000000000001
  0
ELLIPSE
  5
30C
330
1F
100
AcDbEntity
  8
0
 62
     3
100
AcDbEllipse
 10
478.7912789317728
 20
-173.2143493188148
 30
0.0
 11
0.0
 21
-2.0
 31
0.0
210
0.0
220
0.0
230
1.0
 40
0.5
 41
4.71238898038519
 42
6.283185307179586
  0
LINE
  5
30D
330
1F
100
AcDbEntity
  8
0
 62
     3
100
AcDbLine
 10
477.7912789317728
 20
-171.2143493188148
 30
0.0
 11
477.7912789317728
 21
-173.2143493188148
 31
0.0
  0
LINE
  5
30E
330
1F
100
AcDbEntity
  8
0
 62
     3
100
AcDbLine
 10
434.9169794323483
 20
-120.714349318815
 30
0.0
 11
434.9169794323483
 21
-94.71434931881495
 31
0.0
  0
ARC
  5
30F
330
1F
100
AcDbEntity
  8
0
 62
     3
100
AcDbCircle
 10
419.9169794323483
 20
-94.71434931881495
 30
0.0
 40
15.0
100
AcDbArc
 50
0.000000000000007
 51
90.00000000000001
  0
ARC
  5
310
330
1F
100
AcDbEntity
  8
0
 62
     3
100
AcDbCircle
 10
417.9169794323483
 20
-76.71434931881495
 30
0.0
 40
3.0
100
AcDbArc
 50
180.0
 51
270.0
  0
LINE
  5
311
330
1F
100
AcDbEntity
  8
0
 62
     3
100
AcDbLine
 10
427.9169794323483
 20
-120.714349318815
 30
0.0
 11
427.9169794323483
 21
-118.214349318815
 31
0.0
  0
LINE
  5
312
330
1F
100
AcDbEntity
  8
0
 62
     3
100
AcDbLine
 10
432.9169794323483
 20
-118.214349318815
 30
0.0
 11
418.9169794323483
 21
-118.214349318815
 31
0.0
  0
LINE
  5
313
330
1F
100
AcDbEntity
  8
0
 62
     3
100
AcDbLine
 10
415.9169794323483
 20
-121.214349318815
 30
0.0
 11
415.9169794323483
 21
-121.8772276174301
 31
0.0
  0
ARC
  5
314
330
1F
100
AcDbEntity
  8
0
 62
     3
100
AcDbCircle
 10
432.9169794323483
 20
-116.214349318815
 30
0.0
 40
2.0
100
AcDbArc
 50
270.0
 51
360.0
  0
ARC
  5
315
330
1F
100
AcDbEntity
  8
0
 62
     3
100
AcDbCircle
 10
418.9169794323483
 20
-121.214349318815
 30
0.0
 40
3.0
100
AcDbArc
 50
90.00000000000001
 51
180.0
  0
ARC
  5
316
330
1F
100
AcDbEntity
  8
0
 62
     3
100
AcDbCircle
 10
413.9169794323483
 20
-121.8772276174301
 30
0.0
 40
2.0
100
AcDbArc
 50
322.341537993792
 51
360.0
  0
LINE
  5
317
330
1F
100
AcDbEntity
  8
0
 62
     3
100
AcDbLine
 10
457.4169794323483
 20
-145.214349318815
 30
0.0
 11
435.4169794323483
 21
-145.214349318815
 31
0.0
  0
LINE
  5
318
330
1F
100
AcDbEntity
  8
0
 62
     3
100
AcDbLine
 10
435.4169794323483
 20
-145.214349318815
 30
0.0
 11
435.4169794323483
 21
-133.214349318815
 31
0.0
  0
LINE
  5
319
330
1F
100
AcDbEntity
  8
0
 62
     3
100
AcDbLine
 10
459.4169794323483
 20
-76.21434931881495
 30
0.0
 11
459.4169794323483
 21
-120.214349318815
 31
0.0
  0
LINE
  5
31A
330
1F
100
AcDbEntity
  8
0
 62
     3
100
AcDbLine
 10
458.4169794323483
 20
-75.21434931881495
 30
0.0
 11
459.4169794323483
 21
-76.21434931881495
 31
0.0
  0
LINE
  5
31B
330
1F
100
AcDbEntity
  8
0
 62
     3
100
AcDbLine
 10
458.4169794323483
 20
-121.214349318815
 30
0.0
 11
459.4169794323483
 21
-120.214349318815
 31
0.0
  0
LINE
  5
31C
330
1F
100
AcDbEntity
  8
0
 62
     3
100
AcDbLine
 10
376.9169794323483
 20
-172.2143493188147
 30
0.0
 11
370.9169794323483
 21
-166.2143493188147
 31
0.0
  0
LINE
  5
31D
330
1F
100
AcDbEntity
  8
0
 62
     3
100
AcDbLine
 10
412.9169794323483
 20
-172.2143493188147
 30
0.0
 11
418.9169794323483
 21
-166.2143493188147
 31
0.0
  0
LINE
  5
31E
330
1F
100
AcDbEntity
  8
0
 62
     3
100
AcDbLine
 10
370.9169794323483
 20
-156.2143493188147
 30
0.0
 11
372.723487381884
 21
-155.9911820753792
 31
0.0
  0
LINE
  5
31F
330
1F
100
AcDbEntity
  8
0
 62
     3
100
AcDbLine
 10
374.9169794323483
 20
-153.5100426442162
 30
0.0
 11
374.9169794323483
 21
-123.8275970446511
 31
0.0
  0
ARC
  5
320
330
1F
100
AcDbEntity
  8
0
 62
     3
100
AcDbCircle
 10
372.4169794323483
 20
-153.5100426442162
 30
0.0
 40
2.5
100
AcDbArc
 50
277.0423634120131
 51
360.0
  0
LINE
  5
321
330
1F
100
AcDbEntity
  8
0
 62
     3
100
AcDbLine
 10
418.9169794323483
 20
-156.2143493188147
 30
0.0
 11
417.1104714828127
 21
-155.9911820753792
 31
0.0
  0
LINE
  5
322
330
1F
100
AcDbEntity
  8
0
 62
     3
100
AcDbLine
 10
414.9169794323483
 20
-153.5100426442162
 30
0.0
 11
414.9169794323483
 21
-123.8275970446511
 31
0.0
  0
ARC
  5
323
330
1F
100
AcDbEntity
  8
0
 62
     3
100
AcDbCircle
 10
417.4169794323483
 20
-153.5100426442162
 30
0.0
 40
2.5
100
AcDbArc
 50
180.0
 51
262.9576365879869
  0
LINE
  5
324
330
1F
100
AcDbEntity
  8
0
 62
     3
100
AcDbLine
 10
370.9169794323483
 20
-122.714349318815
 30
0.0
 11
369.4169794323483
 21
-121.214349318815
 31
0.0
  0
LINE
  5
325
330
1F
100
AcDbEntity
  8
0
 62
     3
100
AcDbLine
 10
418.9169794323483
 20
-122.714349318815
 30
0.0
 11
420.4169794323483
 21
-121.214349318815
 31
0.0
  0
ARC
  5
326
330
1F
100
AcDbEntity
  8
0
 62
     3
100
AcDbCircle
 10
343.4169794323483
 20
-165.5693912667425
 30
0.0
 40
9.0
100
AcDbArc
 50
336.1091649335945
 51
360.0
  0
ARC
  5
327
330
1F
100
AcDbEntity
  8
0
 62
     3
100
AcDbCircle
 10
335.9169794323483
 20
-165.6940930976683
 30
0.0
 40
9.0
100
AcDbArc
 50
336.9745739959596
 51
360.0
  0
ARC
  5
328
330
1F
100
AcDbEntity
  8
0
 62
     3
100
AcDbCircle
 10
446.4169794323483
 20
-165.5693912667425
 30
0.0
 40
9.0
100
AcDbArc
 50
180.0
 51
203.8908350664056
  0
ARC
  5
329
330
1F
100
AcDbEntity
  8
0
 62
     3
100
AcDbCircle
 10
453.9169794323483
 20
-165.6940930976683
 30
0.0
 40
9.0
100
AcDbArc
 50
180.0
 51
203.0254260040404
  0
LINE
  5
32A
330
1F
100
AcDbEntity
  8
0
 62
     3
100
AcDbLine
 10
394.0399731418106
 20
-96.75103913673792
 30
0.0
 11
386.2939901522621
 21
-101.223184500892
 31
0.0
  0
LINE
  5
32B
330
1F
100
AcDbEntity
  8
0
 62
     3
100
AcDbLine
 10
385.4169838617244
 20
-102.7422039546608
 30
0.0
 11
385.4169838617244
 21
-111.686494682969
 31
0.0
  0
LINE
  5
32C
330
1F
100
AcDbEntity
  8
0
 62
     3
100
AcDbLine
 10
386.2939901522621
 20
-113.2055141367378
 30
0.0
 11
394.0399731418106
 21
-117.6776595008919
 31
0.0
  0
LINE
  5
32D
330
1F
100
AcDbEntity
  8
0
 62
     3
100
AcDbLine
 10
395.793985722886
 20
-117.6776595008919
 30
0.0
 11
403.5399687124345
 21
-113.2055141367379
 31
0.0
  0
LINE
  5
32E
330
1F
100
AcDbEntity
  8
0
 62
     3
100
AcDbLine
 10
404.4169750029723
 20
-111.686494682969
 30
0.0
 11
404.4169750029723
 21
-102.7422039546608
 31
0.0
  0
LINE
  5
32F
330
1F
100
AcDbEntity
  8
0
 62
     3
100
AcDbLine
 10
403.5399687124346
 20
-101.223184500892
 30
0.0
 11
395.7939857228861
 21
-96.75103913673792
 31
0.0
  0
ARC
  5
330
330
1F
100
AcDbEntity
  8
0
 62
     3
100
AcDbCircle
 10
394.9169794323483
 20
-107.2143493188149
 30
0.0
 40
10.49999999999996
100
AcDbArc
 50
265.2088220446498
 51
274.7911779553501
  0
ARC
  5
331
330
1F
100
AcDbEntity
  8
0
 62
     3
100
AcDbCircle
 10
394.9169794323483
 20
-107.2143493188149
 30
0.0
 40
10.49999999999996
100
AcDbArc
 50
325.2088220446498
 51
334.7911779553501
  0
ARC
  5
332
330
1F
100
AcDbEntity
  8
0
 62
     3
100
AcDbCircle
 10
394.9169794323483
 20
-107.2143493188149
 30
0.0
 40
10.49999999999996
100
AcDbArc
 50
25.20882204464972
 51
34.79117795535009
  0
ARC
  5
333
330
1F
100
AcDbEntity
  8
0
 62
     3
100
AcDbCircle
 10
394.9169794323483
 20
-107.2143493188149
 30
0.0
 40
10.49999999999996
100
AcDbArc
 50
85.20882204464975
 51
94.79117795535019
  0
ARC
  5
334
330
1F
100
AcDbEntity
  8
0
 62
     3
100
AcDbCircle
 10
394.9169794323483
 20
-107.2143493188149
 30
0.0
 40
10.49999999999996
100
AcDbArc
 50
145.2088220446498
 51
154.7911779553502
  0
ARC
  5
335
330
1F
100
AcDbEntity
  8
0
 62
     3
100
AcDbCircle
 10
394.9169794323483
 20
-107.2143493188149
 30
0.0
 40
10.49999999999996
100
AcDbArc
 50
205.2088220446498
 51
214.7911779553502
  0
CIRCLE
  5
336
330
1F
100
AcDbEntity
  8
0
 62
     3
100
AcDbCircle
 10
394.9169794323483
 20
-107.2143493188149
 30
0.0
 40
8.99999999999997
  0
CIRCLE
  5
337
330
1F
100
AcDbEntity
  8
0
 62
     3
100
AcDbCircle
 10
394.9169794323483
 20
-107.2143493188149
 30
0.0
 40
11.0
  0
CIRCLE
  5
338
330
1F
100
AcDbEntity
  8
0
 62
     3
100
AcDbCircle
 10
394.9169794323483
 20
-107.2143493188149
 30
0.0
 40
14.0
  0
LINE
  5
339
330
1F
100
AcDbEntity
  8
0
 62
     3
100
AcDbLine
 10
63.99156171760889
 20
-122.714349318815
 30
0.0
 11
62.49156171760889
 21
-121.214349318815
 31
0.0
  0
LINE
  5
33A
330
1F
100
AcDbEntity
  8
0
 62
     3
100
AcDbLine
 10
361.9169794323483
 20
-120.714349318815
 30
0.0
 11
332.9169794323483
 21
-120.714349318815
 31
0.0
  0
LINE
  5
33B
330
1F
100
AcDbEntity
  8
0
 62
     3
100
AcDbLine
 10
332.9169794323483
 20
-120.714349318815
 30
0.0
 11
332.9169794323483
 21
-77.71434931881495
 31
0.0
  0
LINE
  5
33C
330
1F
100
AcDbEntity
  8
0
 62
     3
100
AcDbLine
 10
333.9169794323483
 20
-76.71434931881495
 30
0.0
 11
455.9169794323483
 21
-76.71434931881495
 31
0.0
  0
LINE
  5
33D
330
1F
100
AcDbEntity
  8
0
 62
     3
100
AcDbLine
 10
456.9169794323483
 20
-77.71434931881495
 30
0.0
 11
456.9169794323483
 21
-120.714349318815
 31
0.0
  0
LINE
  5
33E
330
1F
100
AcDbEntity
  8
0
 62
     3
100
AcDbLine
 10
456.9169794323483
 20
-120.714349318815
 30
0.0
 11
427.9169794323483
 21
-120.714349318815
 31
0.0
  0
LINE
  5
33F
330
1F
100
AcDbEntity
  8
0
 62
     3
100
AcDbLine
 10
369.4169794323483
 20
-121.214349318815
 30
0.0
 11
346.4169794323485
 21
-121.214349318815
 31
0.0
  0
LINE
  5
340
330
1F
100
AcDbEntity
  8
0
 62
     3
100
AcDbLine
 10
332.4169794323483
 20
-121.214349318815
 30
0.0
 11
331.4169794323483
 21
-121.214349318815
 31
0.0
  0
LINE
  5
341
330
1F
100
AcDbEntity
  8
0
 62
     3
100
AcDbLine
 10
420.4169794323483
 20
-121.214349318815
 30
0.0
 11
443.4169794323482
 21
-121.214349318815
 31
0.0
  0
LINE
  5
342
330
1F
100
AcDbEntity
  8
0
 62
     3
100
AcDbLine
 10
457.4169794323483
 20
-121.214349318815
 30
0.0
 11
458.4169794323483
 21
-121.214349318815
 31
0.0
  0
LINE
  5
343
330
1F
100
AcDbEntity
  8
0
 62
     3
100
AcDbLine
 10
332.9169794323483
 20
-77.71434931881495
 30
0.0
 11
333.9169794323483
 21
-76.71434931881495
 31
0.0
  0
LINE
  5
344
330
1F
100
AcDbEntity
  8
0
 62
     3
100
AcDbLine
 10
455.9169794323483
 20
-76.71434931881495
 30
0.0
 11
456.9169794323483
 21
-77.71434931881495
 31
0.0
  0
LINE
  5
345
330
1F
100
AcDbEntity
  8
0
 62
     3
100
AcDbLine
 10
-34.00843828239378
 20
-120.714349318815
 30
0.0
 11
12.03352182605711
 21
-120.714349318815
 31
0.0
  0
LINE
  5
346
330
1F
100
AcDbEntity
  8
0
 62
     3
100
AcDbLine
 10
332.4169794323483
 20
-77.21434931881495
 30
0.0
 11
333.4169794323483
 21
-76.21434931881495
 31
0.0
  0
LINE
  5
347
330
1F
100
AcDbEntity
  8
0
 62
     3
100
AcDbLine
 10
456.4169794323483
 20
-76.21434931881495
 30
0.0
 11
457.4169794323483
 21
-77.21434931881495
 31
0.0
  0
CIRCLE
  5
348
330
1F
100
AcDbEntity
  8
0
 62
     3
100
AcDbCircle
 10
342.4169794323483
 20
-99.21434931881495
 30
0.0
 40
7.0
  0
CIRCLE
  5
349
330
1F
100
AcDbEntity
  8
0
 62
     3
100
AcDbCircle
 10
447.4169794323483
 20
-99.21434931881495
 30
0.0
 40
7.0
  0
LINE
  5
34A
330
1F
100
AcDbEntity
  8
0
 62
     3
100
AcDbLine
 10
370.9169794323483
 20
-148.2143493188148
 30
0.0
 11
374.9169794323483
 21
-148.2143493188148
 31
0.0
  0
LINE
  5
34B
330
1F
100
AcDbEntity
  8
0
 62
     3
100
AcDbLine
 10
414.9169794323483
 20
-148.2143493188148
 30
0.0
 11
418.9169794323483
 21
-148.2143493188148
 31
0.0
  0
LINE
  5
34C
330
1F
100
AcDbEntity
  8
0
 62
     3
100
AcDbLine
 10
-270.0084382823926
 20
-201.2143493188147
 30
0.0
 11
-254.0084382823927
 21
-201.2143493188147
 31
0.0
  0
LINE
  5
34D
330
1F
100
AcDbEntity
  8
0
 62
     3
100
AcDbLine
 10
83.99156171760798
 20
-193.2143493188147
 30
0.0
 11
-254.0084382823927
 21
-193.2143493188147
 31
0.0
  0
LINE
  5
34E
330
1F
100
AcDbEntity
  8
0
 62
     3
100
AcDbLine
 10
-270.0084382823926
 20
-193.2143493188147
 30
0.0
 11
-446.0084382823912
 21
-193.2143493188147
 31
0.0
  0
LINE
  5
34F
330
1F
100
AcDbEntity
  8
0
 62
     3
100
AcDbLine
 10
331.9169794323483
 20
-201.2143493188147
 30
0.0
 11
331.9169794323483
 21
-193.2143493188147
 31
0.0
  0
LINE
  5
350
330
1F
100
AcDbEntity
  8
0
 62
     3
100
AcDbLine
 10
356.9169794323483
 20
-193.2143493188147
 30
0.0
 11
356.9169794323483
 21
-201.2143493188147
 31
0.0
  0
LINE
  5
351
330
1F
100
AcDbEntity
  8
0
 62
     3
100
AcDbLine
 10
331.9169794323483
 20
-201.2143493188147
 30
0.0
 11
356.9169794323483
 21
-201.2143493188147
 31
0.0
  0
LINE
  5
352
330
1F
100
AcDbEntity
  8
0
 62
     3
100
AcDbLine
 10
457.9169794323483
 20
-201.2143493188147
 30
0.0
 11
457.9169794323483
 21
-193.2143493188147
 31
0.0
  0
LINE
  5
353
330
1F
100
AcDbEntity
  8
0
 62
     3
100
AcDbLine
 10
432.9169794323483
 20
-193.2143493188147
 30
0.0
 11
432.9169794323483
 21
-201.2143493188147
 31
0.0
  0
LINE
  5
354
330
1F
100
AcDbEntity
  8
0
 62
     3
100
AcDbLine
 10
457.9169794323483
 20
-201.2143493188147
 30
0.0
 11
432.9169794323483
 21
-201.2143493188147
 31
0.0
  0
LINE
  5
355
330
1F
100
AcDbEntity
  8
0
 62
     3
100
AcDbLine
 10
108.4915617176084
 20
206.8436617772368
 30
0.0
 11
108.4915617176084
 21
188.8436617772369
 31
0.0
  0
LINE
  5
356
330
1F
100
AcDbEntity
  8
0
 62
     3
100
AcDbLine
 10
108.4915617176084
 20
188.8436617772369
 30
0.0
 11
106.9915617176084
 21
187.3436617772369
 31
0.0
  0
LINE
  5
357
330
1F
100
AcDbEntity
  8
0
 62
     3
100
AcDbLine
 10
106.9915617176084
 20
208.3436617772368
 30
0.0
 11
108.4915617176084
 21
206.8436617772368
 31
0.0
  0
LINE
  5
358
330
1F
100
AcDbEntity
  8
0
 62
     3
100
AcDbLine
 10
106.9915617176084
 20
203.8348265951598
 30
0.0
 11
106.9915617176084
 21
202.3158071413909
 31
0.0
  0
LINE
  5
359
330
1F
100
AcDbEntity
  8
0
 62
     3
100
AcDbLine
 10
106.9915617176084
 20
191.8524969593139
 30
0.0
 11
106.9915617176084
 21
193.3715164130828
 31
0.0
  0
LINE
  5
35A
330
1F
100
AcDbEntity
  8
0
 62
     3
100
AcDbLine
 10
83.49156171760848
 20
208.3436617772368
 30
0.0
 11
106.9915617176084
 21
208.3436617772368
 31
0.0
  0
LINE
  5
35B
330
1F
100
AcDbEntity
  8
0
 62
     3
100
AcDbLine
 10
83.49156171760848
 20
187.3436617772369
 30
0.0
 11
106.9915617176084
 21
187.3436617772369
 31
0.0
  0
LINE
  5
35C
330
1F
100
AcDbEntity
  8
0
 62
     3
100
AcDbLine
 10
106.9915617176084
 20
191.8524969593139
 30
0.0
 11
83.49156171760848
 21
191.8524969593139
 31
0.0
  0
LINE
  5
35D
330
1F
100
AcDbEntity
  8
0
 62
     3
100
AcDbLine
 10
106.9915617176084
 20
193.3715164130828
 30
0.0
 11
83.49156171760848
 21
193.3715164130828
 31
0.0
  0
LINE
  5
35E
330
1F
100
AcDbEntity
  8
0
 62
     3
100
AcDbLine
 10
106.9915617176084
 20
202.3158071413909
 30
0.0
 11
83.49156171760848
 21
202.3158071413909
 31
0.0
  0
LINE
  5
35F
330
1F
100
AcDbEntity
  8
0
 62
     3
100
AcDbLine
 10
83.49156171760848
 20
203.8348265951598
 30
0.0
 11
106.9915617176084
 21
203.8348265951598
 31
0.0
  0
LINE
  5
360
330
1F
100
AcDbEntity
  8
0
 62
     3
100
AcDbLine
 10
83.49156171760848
 20
208.3436617772368
 30
0.0
 11
83.49156171760848
 21
187.3436617772369
 31
0.0
  0
LINE
  5
361
330
1F
100
AcDbEntity
  8
0
 62
     3
100
AcDbLine
 10
80.89348550625641
 20
186.8436617772369
 30
0.0
 11
80.89348550625641
 21
208.8436617772369
 31
0.0
  0
LINE
  5
362
330
1F
100
AcDbEntity
  8
0
 62
     3
100
AcDbLine
 10
80.89348550625641
 20
208.8436617772369
 30
0.0
 11
83.49156171760848
 21
208.3436617772368
 31
0.0
  0
LINE
  5
363
330
1F
100
AcDbEntity
  8
0
 62
     3
100
AcDbLine
 10
83.49156171760846
 20
187.3436617772369
 30
0.0
 11
80.89348550625641
 21
186.8436617772369
 31
0.0
  0
ARC
  5
364
330
1F
100
AcDbEntity
  8
0
 62
     3
100
AcDbCircle
 10
104.9503623802165
 20
206.0892441861983
 30
0.0
 40
3.041199337391923
100
AcDbArc
 50
312.1583853430221
 51
47.84161465697673
  0
ARC
  5
365
330
1F
100
AcDbEntity
  8
0
 62
     3
100
AcDbCircle
 10
97.49151963854635
 20
197.8436617772368
 30
0.0
 40
10.50004207906205
100
AcDbArc
 50
334.7912860464561
 51
25.20871395354402
  0
ARC
  5
366
330
1F
100
AcDbEntity
  8
0
 62
     3
100
AcDbCircle
 10
104.9503623802165
 20
189.5980793682754
 30
0.0
 40
3.041199337391923
100
AcDbArc
 50
312.1583853430233
 51
47.84161465697787
  0
LINE
  5
367
330
1F
100
AcDbEntity
  8
0
 62
     3
100
AcDbLine
 10
83.49156171761003
 20
-106.3373430282773
 30
0.0
 11
105.9915617176091
 21
-106.3373430282773
 31
0.0
  0
LINE
  5
368
330
1F
100
AcDbEntity
  8
0
 62
     3
100
AcDbLine
 10
83.49156171761003
 20
-108.0913556093527
 30
0.0
 11
105.9915617176091
 21
-108.0913556093527
 31
0.0
  0
LINE
  5
369
330
1F
100
AcDbEntity
  8
0
 62
     3
100
AcDbLine
 10
83.49156171761003
 20
-98.59136003872874
 30
0.0
 11
105.9915617176091
 21
-98.59136003872874
 31
0.0
  0
LINE
  5
36A
330
1F
100
AcDbEntity
  8
0
 62
     3
100
AcDbLine
 10
107.9915661469851
 20
-97.71435374819103
 30
0.0
 11
83.49156171761003
 21
-97.71435374819103
 31
0.0
  0
LINE
  5
36B
330
1F
100
AcDbEntity
  8
0
 62
     3
100
AcDbLine
 10
107.9915661469851
 20
-116.714344889439
 30
0.0
 11
83.49156171761003
 21
-116.7143448894389
 31
0.0
  0
ARC
  5
36C
330
1F
100
AcDbEntity
  8
0
 62
     3
100
AcDbCircle
 10
103.2415564577451
 20
-102.464351533503
 30
0.0
 40
4.750009689239913
100
AcDbArc
 50
305.3765349786522
 51
54.62346502134784
  0
ARC
  5
36D
330
1F
100
AcDbEntity
  8
0
 62
     3
100
AcDbCircle
 10
103.2415564577451
 20
-111.964347104127
 30
0.0
 40
4.750009689239913
100
AcDbArc
 50
305.3765349786522
 51
54.62346502134784
  0
LINE
  5
36E
330
1F
100
AcDbEntity
  8
0
 62
     3
100
AcDbLine
 10
107.9915661469851
 20
-116.714344889439
 30
0.0
 11
108.4915617176091
 21
-116.2143493188149
 31
0.0
  0
LINE
  5
36F
330
1F
100
AcDbEntity
  8
0
 62
     3
100
AcDbLine
 10
105.9915617176089
 20
-115.8373385989013
 30
0.0
 11
83.49156171761003
 21
-115.8373385989013
 31
0.0
  0
LINE
  5
370
330
1F
100
AcDbEntity
  8
0
 62
     3
100
AcDbLine
 10
105.9915617176091
 20
-115.8373385989013
 30
0.0
 11
105.9915617176091
 21
-116.7143448894389
 31
0.0
  0
LINE
  5
371
330
1F
100
AcDbEntity
  8
0
 62
     3
100
AcDbLine
 10
105.9915617176091
 20
-97.71435374819103
 30
0.0
 11
105.9915617176091
 21
-98.59136003872874
 31
0.0
  0
LINE
  5
372
330
1F
100
AcDbEntity
  8
0
 62
     3
100
AcDbLine
 10
105.9915617176091
 20
-106.3373430282773
 30
0.0
 11
105.9915617176091
 21
-108.0913556093528
 31
0.0
  0
LINE
  5
373
330
1F
100
AcDbEntity
  8
0
 62
     3
100
AcDbLine
 10
402.9169794323483
 20
-172.2143493188147
 30
0.0
 11
402.9169794323483
 21
-193.2143493188147
 31
0.0
  0
LINE
  5
374
330
1F
100
AcDbEntity
  8
0
 62
     3
100
AcDbLine
 10
386.9169794323483
 20
-172.2143493188147
 30
0.0
 11
386.9169794323483
 21
-193.2143493188147
 31
0.0
  0
LINE
  5
375
330
1F
100
AcDbEntity
  8
0
 62
     3
100
AcDbLine
 10
386.9169794323483
 20
-189.2143493188147
 30
0.0
 11
402.9169794323483
 21
-189.2143493188147
 31
0.0
  0
LINE
  5
376
330
1F
100
AcDbEntity
  8
0
  6
CENTER
 62
     2
100
AcDbLine
 10
-54.00843828239165
 20
-156.2143493188148
 30
0.0
 11
-36.00843828239171
 21
-156.2143493188148
 31
0.0
  0
LINE
  5
377
330
1F
100
AcDbEntity
  8
0
  6
CENTER
 62
     2
100
AcDbLine
 10
-45.00843828239168
 20
-147.2143493188149
 30
0.0
 11
-45.00843828239168
 21
-165.2143493188148
 31
0.0
  0
LINE
  5
378
330
1F
100
AcDbEntity
  8
0
  6
CENTER
 62
     2
100
AcDbLine
 10
-119.0084382823914
 20
-147.2143493188149
 30
0.0
 11
-119.0084382823914
 21
-165.2143493188148
 31
0.0
  0
LINE
  5
379
330
1F
100
AcDbEntity
  8
0
  6
CENTER
 62
     2
100
AcDbLine
 10
-128.0084382823914
 20
-156.2143493188148
 30
0.0
 11
-110.0084382823914
 21
-156.2143493188148
 31
0.0
  0
LINE
  5
37A
330
1F
100
AcDbEntity
  8
0
  6
CENTER
 62
     2
100
AcDbLine
 10
-193.0084382823911
 20
-147.2143493188149
 30
0.0
 11
-193.0084382823911
 21
-165.2143493188148
 31
0.0
  0
LINE
  5
37B
330
1F
100
AcDbEntity
  8
0
  6
CENTER
 62
     2
100
AcDbLine
 10
-202.0084382823911
 20
-156.2143493188148
 30
0.0
 11
-184.0084382823912
 21
-156.2143493188148
 31
0.0
  0
LINE
  5
37C
330
1F
100
AcDbEntity
  8
0
  6
CENTER
 62
     2
100
AcDbLine
 10
-262.0084382823927
 20
-201.2143493188147
 30
0.0
 11
-262.0084382823927
 21
-169.2143493188148
 31
0.0
  0
LINE
  5
37D
330
1F
100
AcDbEntity
  8
0
  6
CENTER
 62
     2
100
AcDbLine
 10
-36.00843828239378
 20
-107.214349318815
 30
0.0
 11
83.49156171761003
 21
-107.214349318815
 31
0.0
  0
LINE
  5
37E
330
1F
100
AcDbEntity
  8
0
  6
CENTER
 62
     2
100
AcDbLine
 10
108.4915617176091
 20
-107.214349318815
 30
0.0
 11
131.9915617176089
 21
-107.214349318815
 31
0.0
  0
LINE
  5
37F
330
1F
100
AcDbEntity
  8
0
  6
CENTER
 62
     2
100
AcDbLine
 10
394.9169794323483
 20
-75.21434931881495
 30
0.0
 11
394.9169794323483
 21
-193.2143493188147
 31
0.0
  0
LINE
  5
380
330
1F
100
AcDbEntity
  8
0
  6
CENTER
 62
     2
100
AcDbLine
 10
371.9169794323483
 20
-107.214349318815
 30
0.0
 11
417.9169794323483
 21
-107.214349318815
 31
0.0
  0
LINE
  5
381
330
1F
100
AcDbEntity
  8
0
  6
CENTER
 62
     2
100
AcDbLine
 10
331.254823760754
 20
-156.2143493188148
 30
0.0
 11
457.3998279501386
 21
-156.2143493188148
 31
0.0
  0
LINE
  5
382
330
1F
100
AcDbEntity
  8
0
  6
CENTER
 62
     2
100
AcDbLine
 10
100.49156171761
 20
-207.214349318815
 30
0.0
 11
181.9915617176089
 21
-207.2143493188151
 31
0.0
  0
LINE
  5
383
330
1F
100
AcDbEntity
  8
0
  6
CENTER
 62
     2
100
AcDbLine
 10
-448.008438282392
 20
197.8436617772368
 30
0.0
 11
-312.3368529323846
 21
197.8436617772368
 31
0.0
  0
LINE
  5
384
330
1F
100
AcDbEntity
  8
0
  6
CENTER
 62
     2
100
AcDbLine
 10
-299.0168573573821
 20
197.8436617772368
 30
0.0
 11
-238.4108774911206
 21
197.8436617772368
 31
0.0
  0
LINE
  5
385
330
1F
100
AcDbEntity
  8
0
  6
CENTER
 62
     2
100
AcDbLine
 10
-225.0908819161181
 20
197.8436617772368
 30
0.0
 11
131.9915617176081
 21
197.8436617772368
 31
0.0
  0
LINE
  5
386
330
1F
100
AcDbEntity
  8
0
  6
CENTER
 62
     2
100
AcDbLine
 10
-426.0084382823912
 20
-169.2143493188147
 30
0.0
 11
-426.0084382823912
 21
-199.2479928635147
 31
0.0
  0
LINE
  5
387
330
1F
100
AcDbEntity
  8
0
  6
CENTER
 62
     2
100
AcDbLine
 10
63.99156171760798
 20
-169.2143493188148
 30
0.0
 11
63.99156171760798
 21
-199.2479928635147
 31
0.0
  0
LINE
  5
388
330
1F
100
AcDbEntity
  8
0
  6
CENTER
 62
     2
100
AcDbLine
 10
-252.7284382823927
 20
125.3436617772371
 30
0.0
 11
-271.2884382823926
 21
125.3436617772371
 31
0.0
  0
LINE
  5
389
330
1F
100
AcDbEntity
  8
0
  6
CENTER
 62
     2
100
AcDbLine
 10
-262.0084382823927
 20
279.6236617772366
 30
0.0
 11
-262.0084382823927
 21
116.0636617772371
 31
0.0
  0
LINE
  5
38A
330
1F
100
AcDbEntity
  8
0
  6
CENTER
 62
     2
100
AcDbLine
 10
310.2310437109724
 20
305.9545049063336
 30
0.0
 11
520.2310437109724
 21
305.9545049063336
 31
0.0
  0
INSERT
  5
38B
330
1F
100
AcDbEntity
  8
0
  6
CONTINUOUS
100
AcDbBlockReference
  2
GROUP_1
 10
0.0
 20
0.0
 30
0.0
  0
INSERT
  5
38C
330
1F
100
AcDbEntity
  8
0
  6
CONTINUOUS
100
AcDbBlockReference
  2
GROUP_2
 10
0.0
 20
0.0
 30
0.0
  0
INSERT
  5
38D
330
1F
100
AcDbEntity
  8
0
  6
CONTINUOUS
100
AcDbBlockReference
  2
GROUP_3
 10
0.0
 20
0.0
 30
0.0
  0
INSERT
  5
38E
330
1F
100
AcDbEntity
  8
0
  6
CONTINUOUS
100
AcDbBlockReference
  2
GROUP_4
 10
0.0
 20
0.0
 30
0.0
  0
INSERT
  5
38F
330
1F
100
AcDbEntity
  8
0
  6
CONTINUOUS
100
AcDbBlockReference
  2
GROUP_6
 10
0.0
 20
0.0
 30
0.0
  0
LINE
  5
390
330
1F
100
AcDbEntity
  8
0
 62
     7
100
AcDbLine
 10
454.9169794323483
 20
-148.2143493188148
 30
0.0
 11
454.9169794323483
 21
-164.2143493188148
 31
0.0
  0
LINE
  5
391
330
1F
100
AcDbEntity
  8
0
 62
     7
100
AcDbLine
 10
449.9169794323483
 20
-147.2143493188148
 30
0.0
 11
449.9169794323483
 21
-165.2143493188148
 31
0.0
  0
LINE
  5
392
330
1F
100
AcDbEntity
  8
0
 62
     7
100
AcDbLine
 10
441.9169794323483
 20
-147.2143493188148
 30
0.0
 11
441.9169794323483
 21
-165.2143493188148
 31
0.0
  0
ARC
  5
393
330
1F
100
AcDbEntity
  8
0
 62
     7
100
AcDbCircle
 10
445.9169794323483
 20
-146.6786350331005
 30
0.0
 40
4.035714285714292
100
AcDbArc
 50
187.6281496685814
 51
352.3718503314186
  0
LINE
  5
394
330
1F
100
AcDbEntity
  8
0
 62
     7
100
AcDbLine
 10
437.4169794323483
 20
-147.2143493188148
 30
0.0
 11
441.9169794323483
 21
-147.2143493188148
 31
0.0
  0
LINE
  5
395
330
1F
100
AcDbEntity
  8
0
 62
     7
100
AcDbLine
 10
449.9169794323483
 20
-147.2143493188148
 30
0.0
 11
453.9169794323483
 21
-147.2143493188148
 31
0.0
  0
LINE
  5
396
330
1F
100
AcDbEntity
  8
0
 62
     7
100
AcDbLine
 10
454.9169794323483
 20
-148.2143493188148
 30
0.0
 11
453.9169794323483
 21
-147.2143493188148
 31
0.0
  0
LINE
  5
397
330
1F
100
AcDbEntity
  8
0
 62
     7
100
AcDbLine
 10
453.9169794323483
 20
-147.2143493188148
 30
0.0
 11
453.9169794323483
 21
-151.2143493188148
 31
0.0
  0
ARC
  5
398
330
1F
100
AcDbEntity
  8
0
 62
     7
100
AcDbCircle
 10
445.9169794323483
 20
-165.7500636045292
 30
0.0
 40
4.035714285714292
100
AcDbArc
 50
7.628149668581393
 51
172.3718503314186
  0
LINE
  5
399
330
1F
100
AcDbEntity
  8
0
 62
     7
100
AcDbLine
 10
449.9169794323483
 20
-165.2143493188148
 30
0.0
 11
453.9169794323483
 21
-165.2143493188148
 31
0.0
  0
LINE
  5
39A
330
1F
100
AcDbEntity
  8
0
 62
     7
100
AcDbLine
 10
454.9169794323483
 20
-164.2143493188148
 30
0.0
 11
453.9169794323483
 21
-165.2143493188148
 31
0.0
  0
LINE
  5
39B
330
1F
100
AcDbEntity
  8
0
 62
     7
100
AcDbLine
 10
453.9169794323483
 20
-165.2143493188148
 30
0.0
 11
453.9169794323483
 21
-161.2143493188148
 31
0.0
  0
LINE
  5
39C
330
1F
100
AcDbEntity
  8
0
 62
     7
100
AcDbLine
 10
437.4169794323483
 20
-165.2143493188148
 30
0.0
 11
441.9169794323483
 21
-165.2143493188148
 31
0.0
  0
LINE
  5
39D
330
1F
100
AcDbEntity
  8
0
 62
     7
100
AcDbLine
 10
346.9169794323483
 20
-149.8220444734016
 30
0.0
 11
346.9169794323483
 21
-162.6066541642281
 31
0.0
  0
LINE
  5
39E
330
1F
100
AcDbEntity
  8
0
 62
     7
100
AcDbLine
 10
352.4169794323483
 20
-148.3483239150304
 30
0.0
 11
346.9169794323483
 21
-149.8220444734016
 31
0.0
  0
LINE
  5
39F
330
1F
100
AcDbEntity
  8
0
 62
     7
100
AcDbLine
 10
352.4169794323483
 20
-164.0803747225993
 30
0.0
 11
346.9169794323483
 21
-162.6066541642281
 31
0.0
  0
LINE
  5
3A0
330
1F
100
AcDbEntity
  8
0
 62
     7
100
AcDbLine
 10
101.6140607168092
 20
-90.21434931881501
 30
0.0
 11
105.49156171761
 21
-90.21434931881501
 31
0.0
  0
LINE
  5
3A1
330
1F
100
AcDbEntity
  8
0
 62
     7
100
AcDbLine
 10
98.99156171761003
 20
-92.71434931881501
 30
0.0
 11
78.99156171761003
 21
-92.71434931881501
 31
0.0
  0
LINE
  5
3A2
330
1F
100
AcDbEntity
  8
0
 62
     7
100
AcDbLine
 10
78.99156171761003
 20
-121.714349318815
 30
0.0
 11
98.99156171761003
 21
-121.714349318815
 31
0.0
  0
ARC
  5
3A3
330
1F
100
AcDbEntity
  8
0
 62
     7
100
AcDbCircle
 10
98.49156171761003
 20
-89.71434931881501
 30
0.0
 40
2.0
100
AcDbArc
 50
284.47751218593
 51
321.3178125465105
  0
ARC
  5
3A4
330
1F
100
AcDbEntity
  8
0
 62
     7
100
AcDbCircle
 10
98.49156171761003
 20
-124.714349318815
 30
0.0
 40
2.0
100
AcDbArc
 50
0.0
 51
75.52248781407005
  0
LINE
  5
3A5
330
1F
100
AcDbEntity
  8
0
 62
     7
100
AcDbLine
 10
78.49156171761003
 20
-93.21434931881501
 30
0.0
 11
78.99156171761003
 21
-92.71434931881501
 31
0.0
  0
LINE
  5
3A6
330
1F
100
AcDbEntity
  8
0
 62
     7
100
AcDbLine
 10
78.49156171761003
 20
-121.214349318815
 30
0.0
 11
78.99156171761003
 21
-121.714349318815
 31
0.0
  0
ARC
  5
3A7
330
1F
100
AcDbEntity
  8
0
 62
     7
100
AcDbCircle
 10
101.6140607168092
 20
-92.21434931881501
 30
0.0
 40
2.0
100
AcDbArc
 50
90.0
 51
141.3178125465105
  0
ARC
  5
3A8
330
1F
100
AcDbEntity
  8
0
 62
     7
100
AcDbCircle
 10
105.49156171761
 20
-92.21434931881501
 30
0.0
 40
2.0
100
AcDbArc
 50
0.0
 51
90.0
  0
LINE
  5
3A9
330
1F
100
AcDbEntity
  8
0
 62
     7
100
AcDbLine
 10
114.49156171761
 20
-199.714349318815
 30
0.0
 11
114.49156171761
 21
-214.714349318815
 31
0.0
  0
LINE
  5
3AA
330
1F
100
AcDbEntity
  8
0
 62
     7
100
AcDbLine
 10
102.49156171761
 20
-214.714349318815
 30
0.0
 11
114.49156171761
 21
-214.714349318815
 31
0.0
  0
LINE
  5
3AB
330
1F
100
AcDbEntity
  8
0
 62
     7
100
AcDbLine
 10
114.49156171761
 20
-199.714349318815
 30
0.0
 11
109.49156171761
 21
-199.714349318815
 31
0.0
  0
ARC
  5
3AC
330
1F
100
AcDbEntity
  8
0
 62
     7
100
AcDbCircle
 10
102.49156171761
 20
-212.714349318815
 30
0.0
 40
2.0
100
AcDbArc
 50
180.0
 51
270.0
  0
ARC
  5
3AD
330
1F
100
AcDbEntity
  8
0
 62
     7
100
AcDbCircle
 10
109.49156171761
 20
-197.714349318815
 30
0.0
 40
2.0
100
AcDbArc
 50
180.0
 51
270.0
  0
ARC
  5
3AE
330
1F
100
AcDbEntity
  8
0
 62
     7
100
AcDbCircle
 10
109.49156171761
 20
-205.214349318815
 30
0.0
 40
2.0
100
AcDbArc
 50
180.0
 51
270.0
  0
LINE
  5
3AF
330
1F
100
AcDbEntity
  8
0
 62
     7
100
AcDbLine
 10
114.99156171761
 20
-214.214349318815
 30
0.0
 11
114.99156171761
 21
-212.1133288043814
 31
0.0
  0
LINE
  5
3B0
330
1F
100
AcDbEntity
  8
0
 62
     7
100
AcDbLine
 10
114.49156171761
 20
-213.714349318815
 30
0.0
 11
114.49156171761
 21
-200.714349318815
 31
0.0
  0
LINE
  5
3B1
330
1F
100
AcDbEntity
  8
0
 62
     7
100
AcDbLine
 10
114.99156171761
 20
-214.214349318815
 30
0.0
 11
121.99156171761
 21
-214.214349318815
 31
0.0
  0
LINE
  5
3B2
330
1F
100
AcDbEntity
  8
0
 62
     7
100
AcDbLine
 10
114.99156171761
 20
-200.214349318815
 30
0.0
 11
121.99156171761
 21
-200.214349318815
 31
0.0
  0
LINE
  5
3B3
330
1F
100
AcDbEntity
  8
0
 62
     7
100
AcDbLine
 10
114.49156171761
 20
-213.714349318815
 30
0.0
 11
114.99156171761
 21
-214.214349318815
 31
0.0
  0
LINE
  5
3B4
330
1F
100
AcDbEntity
  8
0
 62
     7
100
AcDbLine
 10
121.99156171761
 20
-214.214349318815
 30
0.0
 11
122.49156171761
 21
-213.714349318815
 31
0.0
  0
LINE
  5
3B5
330
1F
100
AcDbEntity
  8
0
 62
     7
100
AcDbLine
 10
121.99156171761
 20
-200.214349318815
 30
0.0
 11
122.49156171761
 21
-200.714349318815
 31
0.0
  0
LINE
  5
3B6
330
1F
100
AcDbEntity
  8
0
 62
     7
100
AcDbLine
 10
114.99156171761
 20
-200.214349318815
 30
0.0
 11
114.49156171761
 21
-200.714349318815
 31
0.0
  0
LINE
  5
3B7
330
1F
100
AcDbEntity
  8
0
 62
     7
100
AcDbLine
 10
114.49156171761
 20
-202.3153698332486
 30
0.0
 11
120.49156171761
 21
-202.3153698332486
 31
0.0
  0
LINE
  5
3B8
330
1F
100
AcDbEntity
  8
0
 62
     7
100
AcDbLine
 10
114.49156171761
 20
-212.1133288043814
 30
0.0
 11
120.49156171761
 21
-212.1133288043814
 31
0.0
  0
LINE
  5
3B9
330
1F
100
AcDbEntity
  8
0
 62
     7
100
AcDbLine
 10
114.99156171761
 20
-202.3153698332487
 30
0.0
 11
114.99156171761
 21
-200.214349318815
 31
0.0
  0
LINE
  5
3BA
330
1F
100
AcDbEntity
  8
0
 62
     7
100
AcDbLine
 10
121.99156171761
 20
-214.214349318815
 30
0.0
 11
121.99156171761
 21
-200.214349318815
 31
0.0
  0
LINE
  5
3BB
330
1F
100
AcDbEntity
  8
0
 62
     7
100
AcDbLine
 10
122.4915617176101
 20
-200.7279276634657
 30
0.0
 11
122.49156171761
 21
-213.7007709741644
 31
0.0
  0
LINE
  5
3BC
330
1F
100
AcDbEntity
  8
0
 62
     7
100
AcDbLine
 10
178.3164548797852
 20
-216.2143493188152
 30
0.0
 11
140.4915617176101
 21
-216.2143493188152
 31
0.0
  0
LINE
  5
3BD
330
1F
100
AcDbEntity
  8
0
 62
     7
100
AcDbLine
 10
178.3164548797852
 20
-198.2143493188149
 30
0.0
 11
140.4915617176101
 21
-198.2143493188149
 31
0.0
  0
LINE
  5
3BE
330
1F
100
AcDbEntity
  8
0
 62
     7
100
AcDbLine
 10
124.002809686214
 20
-215.298307539293
 30
0.0
 11
140.4915617176101
 21
-216.2143493188152
 31
0.0
  0
LINE
  5
3BF
330
1F
100
AcDbEntity
  8
0
 62
     7
100
AcDbLine
 10
140.4915617176101
 20
-198.2143493188149
 30
0.0
 11
124.002809686214
 21
-199.1303910983371
 31
0.0
  0
ARC
  5
3C0
330
1F
100
AcDbEntity
  8
0
 62
     7
100
AcDbCircle
 10
151.9915617176089
 20
-207.2143493188151
 30
0.0
 40
30.0
100
AcDbArc
 50
347.1604115930956
 51
12.83958840690451
  0
ARC
  5
3C1
330
1F
100
AcDbEntity
  8
0
 62
     7
100
AcDbCircle
 10
178.3164548797852
 20
-213.2143493188152
 30
0.0
 40
3.0
100
AcDbArc
 50
270.0
 51
347.1604115930957
  0
ARC
  5
3C2
330
1F
100
AcDbEntity
  8
0
 62
     7
100
AcDbCircle
 10
178.3164548797852
 20
-201.2143493188149
 30
0.0
 40
3.0
100
AcDbArc
 50
12.83958840690482
 51
89.99999999999946
  0
ARC
  5
3C3
330
1F
100
AcDbEntity
  8
0
 62
     7
100
AcDbCircle
 10
124.09156171761
 20
-213.7007709741644
 30
0.0
 40
1.6
100
AcDbArc
 50
180.0
 51
266.8201698801346
  0
ARC
  5
3C4
330
1F
100
AcDbEntity
  8
0
 62
     7
100
AcDbCircle
 10
124.09156171761
 20
-200.7279276634657
 30
0.0
 40
1.6
100
AcDbArc
 50
93.1798301198654
 51
180.0
  0
LINE
  5
3C5
330
1F
100
AcDbEntity
  8
0
 62
     7
100
AcDbLine
 10
120.49156171761
 20
-212.1133288043814
 30
0.0
 11
120.49156171761
 21
-202.3153698332486
 31
0.0
  0
LINE
  5
3C6
330
1F
100
AcDbEntity
  8
0
 62
     7
100
AcDbLine
 10
140.4915617176101
 20
-198.2143493188149
 30
0.0
 11
140.4915617176101
 21
-216.2143493188152
 31
0.0
  0
LINE
  5
3C7
330
1F
100
AcDbEntity
  8
0
 62
     7
100
AcDbLine
 10
78.49156171761003
 20
-93.21434931881501
 30
0.0
 11
78.49156171761003
 21
-96.21434931881504
 31
0.0
  0
LINE
  5
3C8
330
1F
100
AcDbEntity
  8
0
 62
     7
100
AcDbLine
 10
78.49156171761003
 20
-118.214349318815
 30
0.0
 11
78.49156171761003
 21
-121.214349318815
 31
0.0
  0
LINE
  5
3C9
330
1F
100
AcDbEntity
  8
0
 62
     7
100
AcDbLine
 10
98.99156171761003
 20
-91.65084099191871
 30
0.0
 11
98.99156171761003
 21
-92.71434931881501
 31
0.0
  0
LINE
  5
3CA
330
1F
100
AcDbEntity
  8
0
 62
     7
100
AcDbLine
 10
98.99156171761003
 20
-121.714349318815
 30
0.0
 11
98.99156171761003
 21
-122.7778576457113
 31
0.0
  0
LINE
  5
3CB
330
1F
100
AcDbEntity
  8
0
 62
     7
100
AcDbLine
 10
100.49156171761
 20
-124.714349318815
 30
0.0
 11
100.49156171761
 21
-212.714349318815
 31
0.0
  0
LINE
  5
3CC
330
1F
100
AcDbEntity
  8
0
 62
     7
100
AcDbLine
 10
107.49156171761
 20
-92.21434931881501
 30
0.0
 11
107.49156171761
 21
-96.21434931881504
 31
0.0
  0
LINE
  5
3CD
330
1F
100
AcDbEntity
  8
0
 62
     7
100
AcDbLine
 10
107.49156171761
 20
-118.214349318815
 30
0.0
 11
107.49156171761
 21
-205.214349318815
 31
0.0
  0
LINE
  5
3CE
330
1F
100
AcDbEntity
  8
0
 62
     7
100
AcDbLine
 10
310.2310437109724
 20
320.9545049063336
 30
0.0
 11
310.2310437109724
 21
290.9545049063336
 31
0.0
  0
LINE
  5
3CF
330
1F
100
AcDbEntity
  8
0
 62
     7
100
AcDbLine
 10
395.2310437109724
 20
320.9545049063336
 30
0.0
 11
395.2310437109724
 21
290.9545049063336
 31
0.0
  0
LINE
  5
3D0
330
1F
100
AcDbEntity
  8
0
 62
     7
100
AcDbLine
 10
310.2310437109724
 20
320.9545049063336
 30
0.0
 11
395.2310437109724
 21
320.9545049063336
 31
0.0
  0
LINE
  5
3D1
330
1F
100
AcDbEntity
  8
0
 62
     7
100
AcDbLine
 10
310.2310437109724
 20
290.9545049063336
 30
0.0
 11
395.2310437109724
 21
290.9545049063336
 31
0.0
  0
LINE
  5
3D2
330
1F
100
AcDbEntity
  8
0
 62
     7
100
AcDbLine
 10
399.2310437109724
 20
294.9545049063336
 30
0.0
 11
492.6329674996188
 21
294.9545049063336
 31
0.0
  0
LINE
  5
3D3
330
1F
100
AcDbEntity
  8
0
 62
     7
100
AcDbLine
 10
399.2310437109724
 20
316.9545049063336
 30
0.0
 11
492.6329674996187
 21
316.9545049063336
 31
0.0
  0
LINE
  5
3D4
330
1F
100
AcDbEntity
  8
0
 62
     7
100
AcDbLine
 10
395.2310437109724
 20
290.9545049063336
 30
0.0
 11
399.2310437109724
 21
294.9545049063336
 31
0.0
  0
LINE
  5
3D5
330
1F
100
AcDbEntity
  8
0
 62
     7
100
AcDbLine
 10
395.2310437109724
 20
320.9545049063336
 30
0.0
 11
399.2310437109724
 21
316.9545049063336
 31
0.0
  0
LINE
  5
3D6
330
1F
100
AcDbEntity
  8
0
 62
     7
100
AcDbLine
 10
399.2310437109724
 20
294.9545049063336
 30
0.0
 11
399.2310437109724
 21
316.9545049063336
 31
0.0
  0
LINE
  5
3D7
330
1F
100
AcDbEntity
  8
0
 62
     7
100
AcDbLine
 10
520.2310437109724
 20
314.9545049063336
 30
0.0
 11
520.2310437109724
 21
296.9545049063336
 31
0.0
  0
LINE
  5
3D8
330
1F
100
AcDbEntity
  8
0
 62
     7
100
AcDbLine
 10
520.2310437109724
 20
296.9545049063336
 30
0.0
 11
518.7310437109724
 21
295.4545049063336
 31
0.0
  0
LINE
  5
3D9
330
1F
100
AcDbEntity
  8
0
 62
     7
100
AcDbLine
 10
518.7310437109724
 20
316.4545049063336
 30
0.0
 11
520.2310437109724
 21
314.9545049063336
 31
0.0
  0
LINE
  5
3DA
330
1F
100
AcDbEntity
  8
0
 62
     7
100
AcDbLine
 10
518.7310437109724
 20
311.9456697242565
 30
0.0
 11
518.7310437109724
 21
310.4266502704877
 31
0.0
  0
LINE
  5
3DB
330
1F
100
AcDbEntity
  8
0
 62
     7
100
AcDbLine
 10
518.7310437109724
 20
299.9633400884107
 30
0.0
 11
518.7310437109724
 21
301.4823595421795
 31
0.0
  0
LINE
  5
3DC
330
1F
100
AcDbEntity
  8
0
 62
     7
100
AcDbLine
 10
495.2310437109725
 20
316.4545049063336
 30
0.0
 11
518.7310437109724
 21
316.4545049063336
 31
0.0
  0
LINE
  5
3DD
330
1F
100
AcDbEntity
  8
0
 62
     7
100
AcDbLine
 10
495.2310437109725
 20
295.4545049063336
 30
0.0
 11
518.7310437109724
 21
295.4545049063336
 31
0.0
  0
LINE
  5
3DE
330
1F
100
AcDbEntity
  8
0
 62
     7
100
AcDbLine
 10
518.7310437109724
 20
299.9633400884107
 30
0.0
 11
495.2310437109725
 21
299.9633400884107
 31
0.0
  0
LINE
  5
3DF
330
1F
100
AcDbEntity
  8
0
 62
     7
100
AcDbLine
 10
518.7310437109724
 20
301.4823595421795
 30
0.0
 11
495.2310437109725
 21
301.4823595421795
 31
0.0
  0
LINE
  5
3E0
330
1F
100
AcDbEntity
  8
0
 62
     7
100
AcDbLine
 10
518.7310437109724
 20
310.4266502704877
 30
0.0
 11
495.2310437109725
 21
310.4266502704877
 31
0.0
  0
LINE
  5
3E1
330
1F
100
AcDbEntity
  8
0
 62
     7
100
AcDbLine
 10
495.2310437109725
 20
311.9456697242565
 30
0.0
 11
518.7310437109724
 21
311.9456697242565
 31
0.0
  0
LINE
  5
3E2
330
1F
100
AcDbEntity
  8
0
 62
     7
100
AcDbLine
 10
495.2310437109725
 20
316.4545049063336
 30
0.0
 11
495.2310437109725
 21
295.4545049063336
 31
0.0
  0
LINE
  5
3E3
330
1F
100
AcDbEntity
  8
0
 62
     7
100
AcDbLine
 10
495.2310437109725
 20
295.4545049063336
 30
0.0
 11
492.6329674996188
 21
294.9545049063337
 31
0.0
  0
LINE
  5
3E4
330
1F
100
AcDbEntity
  8
0
 62
     7
100
AcDbLine
 10
492.6329674996188
 20
294.9545049063337
 30
0.0
 11
492.6329674996188
 21
316.9545049063336
 31
0.0
  0
LINE
  5
3E5
330
1F
100
AcDbEntity
  8
0
 62
     7
100
AcDbLine
 10
492.6329674996188
 20
316.9545049063336
 30
0.0
 11
495.2310437109725
 21
316.4545049063336
 31
0.0
  0
ARC
  5
3E6
330
1F
100
AcDbEntity
  8
0
 62
     7
100
AcDbCircle
 10
516.6898443735803
 20
314.200087315295
 30
0.0
 40
3.041199337392026
100
AcDbArc
 50
312.1583853430251
 51
47.84161465697491
  0
ARC
  5
3E7
330
1F
100
AcDbEntity
  8
0
 62
     7
100
AcDbCircle
 10
509.2310016319099
 20
305.9545049063336
 30
0.0
 40
10.50004207906252
100
AcDbArc
 50
334.7912860464572
 51
25.20871395354283
  0
ARC
  5
3E8
330
1F
100
AcDbEntity
  8
0
 62
     7
100
AcDbCircle
 10
516.6898443735803
 20
297.7089224973722
 30
0.0
 40
3.041199337392026
100
AcDbArc
 50
312.1583853430251
 51
47.84161465697491
  0
LINE
  5
3E9
330
1F
100
AcDbEntity
  8
0
 62
     7
100
AcDbLine
 10
270.283395675376
 20
316.9543803270746
 30
0.0
 11
260.6786961759447
 21
311.4091044855924
 31
0.0
  0
LINE
  5
3EA
330
1F
100
AcDbEntity
  8
0
 62
     7
100
AcDbLine
 10
260.7310481403484
 20
311.4997807478158
 30
0.0
 11
260.7310481403484
 21
300.4092290648514
 31
0.0
  0
LINE
  5
3EB
330
1F
100
AcDbEntity
  8
0
 62
     7
100
AcDbLine
 10
260.6786961759446
 20
300.4999053270748
 30
0.0
 11
270.2833956753761
 21
294.9546294855925
 31
0.0
  0
LINE
  5
3EC
330
1F
100
AcDbEntity
  8
0
 62
     7
100
AcDbLine
 10
270.1786917465686
 20
294.9546294855925
 30
0.0
 11
279.7833912459999
 21
300.4999053270747
 31
0.0
  0
LINE
  5
3ED
330
1F
100
AcDbEntity
  8
0
 62
     7
100
AcDbLine
 10
279.7310392815962
 20
300.4092290648513
 30
0.0
 11
279.7310392815963
 21
311.4997807478156
 31
0.0
  0
LINE
  5
3EE
330
1F
100
AcDbEntity
  8
0
 62
     7
100
AcDbLine
 10
279.783391246
 20
311.4091044855924
 30
0.0
 11
270.1786917465687
 21
316.9543803270746
 31
0.0
  0
CIRCLE
  5
3EF
330
1F
100
AcDbEntity
  8
0
 62
     7
100
AcDbCircle
 10
270.2310437109723
 20
305.9545049063336
 30
0.0
 40
15.0
  0
CIRCLE
  5
3F0
330
1F
100
AcDbEntity
  8
0
 62
     7
100
AcDbCircle
 10
270.2310437109723
 20
305.9545049063336
 30
0.0
 40
11.0
  0
CIRCLE
  5
3F1
330
1F
100
AcDbEntity
  8
0
 62
     7
100
AcDbCircle
 10
270.2310437109723
 20
305.9545049063336
 30
0.0
 40
9.5
  0
LINE
  5
3F2
330
1F
100
AcDbEntity
  8
LAYER0002
 62
     7
100
AcDbLine
 10
114.49156171761
 20
-212.1133288043814
 30
0.0
 11
120.49156171761
 21
-202.3153698332486
 31
0.0
  0
LINE
  5
3F3
330
1F
100
AcDbEntity
  8
LAYER0002
 62
     7
100
AcDbLine
 10
114.49156171761
 20
-202.3153698332486
 30
0.0
 11
120.49156171761
 21
-212.1133288043814
 31
0.0
  0
INSERT
  5
3F4
330
1F
100
AcDbEntity
  8
LAYER0014
  6
CONTINUOUS
100
AcDbBlockReference
  2
DA_IMAGEDIMGROUP_1
 10
0.0
 20
0.0
 30
0.0
  0
INSERT
  5
3F5
330
1F
100
AcDbEntity
  8
LAYER0014
  6
CONTINUOUS
100
AcDbBlockReference
  2
DA_IMAGEDIMGROUP_2
 10
0.0
 20
0.0
 30
0.0
  0
INSERT
  5
3F6
330
1F
100
AcDbEntity
  8
LAYER0014
  6
CONTINUOUS
100
AcDbBlockReference
  2
DA_IMAGEDIMGROUP_3
 10
0.0
 20
0.0
 30
0.0
  0
INSERT
  5
3F7
330
1F
100
AcDbEntity
  8
LAYER0014
  6
CONTINUOUS
100
AcDbBlockReference
  2
DA_IMAGEDIMGROUP_4
 10
0.0
 20
0.0
 30
0.0
  0
INSERT
  5
3F8
330
1F
100
AcDbEntity
  8
LAYER0014
  6
CONTINUOUS
100
AcDbBlockReference
  2
DA_IMAGEDIMGROUP_5
 10
0.0
 20
0.0
 30
0.0
  0
INSERT
  5
3F9
330
1F
100
AcDbEntity
  8
LAYER0014
  6
CONTINUOUS
100
AcDbBlockReference
  2
DA_IMAGEDIMGROUP_6
 10
0.0
 20
0.0
 30
0.0
  0
INSERT
  5
3FA
330
1F
100
AcDbEntity
  8
LAYER0014
  6
CONTINUOUS
100
AcDbBlockReference
  2
DA_IMAGEDIMGROUP_7
 10
0.0
 20
0.0
 30
0.0
  0
INSERT
  5
3FB
330
1F
100
AcDbEntity
  8
LAYER0014
  6
CONTINUOUS
100
AcDbBlockReference
  2
DA_IMAGEDIMGROUP_8
 10
0.0
 20
0.0
 30
0.0
  0
INSERT
  5
3FC
330
1F
100
AcDbEntity
  8
LAYER0014
  6
CONTINUOUS
100
AcDbBlockReference
  2
DA_IMAGEDIMGROUP_9
 10
0.0
 20
0.0
 30
0.0
  0
INSERT
  5
3FD
330
1F
100
AcDbEntity
  8
LAYER0014
  6
CONTINUOUS
100
AcDbBlockReference
  2
DA_IMAGEDIMGROUP_10
 10
0.0
 20
0.0
 30
0.0
  0
INSERT
  5
3FE
330
1F
100
AcDbEntity
  8
LAYER0014
  6
CONTINUOUS
100
AcDbBlockReference
  2
DA_IMAGEDIMGROUP_11
 10
0.0
 20
0.0
 30
0.0
  0
INSERT
  5
3FF
330
1F
100
AcDbEntity
  8
LAYER0014
  6
CONTINUOUS
100
AcDbBlockReference
  2
DA_IMAGEDIMGROUP_12
 10
0.0
 20
0.0
 30
0.0
  0
INSERT
  5
400
330
1F
100
AcDbEntity
  8
LAYER0014
  6
CONTINUOUS
100
AcDbBlockReference
  2
DA_IMAGEDIMGROUP_13
 10
0.0
 20
0.0
 30
0.0
  0
INSERT
  5
401
330
1F
100
AcDbEntity
  8
LAYER0014
  6
CONTINUOUS
100
AcDbBlockReference
  2
DA_IMAGEDIMGROUP_14
 10
0.0
 20
0.0
 30
0.0
  0
INSERT
  5
402
330
1F
100
AcDbEntity
  8
LAYER0014
  6
CONTINUOUS
100
AcDbBlockReference
  2
DA_IMAGEDIMGROUP_15
 10
0.0
 20
0.0
 30
0.0
  0
INSERT
  5
403
330
1F
100
AcDbEntity
  8
LAYER0014
  6
CONTINUOUS
100
AcDbBlockReference
  2
DA_IMAGEDIMGROUP_16
 10
0.0
 20
0.0
 30
0.0
  0
INSERT
  5
404
330
1F
100
AcDbEntity
  8
LAYER0014
  6
CONTINUOUS
100
AcDbBlockReference
  2
DA_IMAGEDIMGROUP_17
 10
0.0
 20
0.0
 30
0.0
  0
INSERT
  5
405
330
1F
100
AcDbEntity
  8
LAYER0014
  6
CONTINUOUS
100
AcDbBlockReference
  2
DA_IMAGEDIMGROUP_18
 10
0.0
 20
0.0
 30
0.0
  0
INSERT
  5
406
330
1F
100
AcDbEntity
  8
LAYER0014
  6
CONTINUOUS
100
AcDbBlockReference
  2
DA_IMAGEDIMGROUP_19
 10
0.0
 20
0.0
 30
0.0
  0
INSERT
  5
407
330
1F
100
AcDbEntity
  8
LAYER0014
  6
CONTINUOUS
100
AcDbBlockReference
  2
DA_IMAGEDIMGROUP_20
 10
0.0
 20
0.0
 30
0.0
  0
INSERT
  5
408
330
1F
100
AcDbEntity
  8
LAYER0014
  6
CONTINUOUS
100
AcDbBlockReference
  2
DA_IMAGEDIMGROUP_21
 10
0.0
 20
0.0
 30
0.0
  0
INSERT
  5
409
330
1F
100
AcDbEntity
  8
LAYER0014
  6
CONTINUOUS
100
AcDbBlockReference
  2
DA_IMAGEDIMGROUP_22
 10
0.0
 20
0.0
 30
0.0
  0
INSERT
  5
40A
330
1F
100
AcDbEntity
  8
LAYER0014
  6
CONTINUOUS
100
AcDbBlockReference
  2
DA_IMAGEDIMGROUP_23
 10
0.0
 20
0.0
 30
0.0
  0
INSERT
  5
40B
330
1F
100
AcDbEntity
  8
LAYER0014
  6
CONTINUOUS
100
AcDbBlockReference
  2
DA_IMAGEDIMGROUP_24
 10
0.0
 20
0.0
 30
0.0
  0
INSERT
  5
40C
330
1F
100
AcDbEntity
  8
LAYER0014
  6
CONTINUOUS
100
AcDbBlockReference
  2
DA_IMAGEDIMGROUP_25
 10
0.0
 20
0.0
 30
0.0
  0
INSERT
  5
40D
330
1F
100
AcDbEntity
  8
LAYER0014
  6
CONTINUOUS
100
AcDbBlockReference
  2
DA_IMAGEDIMGROUP_26
 10
0.0
 20
0.0
 30
0.0
  0
INSERT
  5
40E
330
1F
100
AcDbEntity
  8
0
  6
CENTER
100
AcDbBlockReference
  2
GROUP_5
 10
0.0
 20
0.0
 30
0.0
  0
LINE
  5
40F
330
1F
100
AcDbEntity
  8
0
  6
DASHED2
 62
     5
100
AcDbLine
 10
310.2310437109724
 20
316.9543803270746
 30
0.0
 11
345.2310437109724
 21
316.9543803270746
 31
0.0
  0
LINE
  5
410
330
1F
100
AcDbEntity
  8
0
  6
DASHED2
 62
     5
100
AcDbLine
 10
310.2310437109724
 20
294.9546294855925
 30
0.0
 11
345.2310437109724
 21
294.9546294855925
 31
0.0
  0
LINE
  5
411
330
1F
100
AcDbEntity
  8
0
  6
DASHED2
 62
     5
100
AcDbLine
 10
330.2310437109724
 20
316.9543803270746
 30
0.0
 11
330.2310437109724
 21
294.9546294855925
 31
0.0
  0
LINE
  5
412
330
1F
100
AcDbEntity
  8
0
  6
DASHED2
 62
     5
100
AcDbLine
 10
330.2310437109724
 20
311.4091044855924
 30
0.0
 11
345.2310437109724
 21
311.4091044855924
 31
0.0
  0
LINE
  5
413
330
1F
100
AcDbEntity
  8
0
  6
DASHED2
 62
     5
100
AcDbLine
 10
330.2310437109724
 20
300.4999053270747
 30
0.0
 11
345.2310437109724
 21
300.4999053270747
 31
0.0
  0
LINE
  5
414
330
1F
100
AcDbEntity
  8
0
  6
DASHED2
 62
     5
100
AcDbLine
 10
345.2310437109724
 20
294.4545049063336
 30
0.0
 11
345.2310437109724
 21
317.4545049063336
 31
0.0
  0
LINE
  5
415
330
1F
100
AcDbEntity
  8
0
  6
DASHED2
 62
     5
100
AcDbLine
 10
360.2310437109724
 20
315.4545049063336
 30
0.0
 11
385.2310437109724
 21
315.4545049063336
 31
0.0
  0
LINE
  5
416
330
1F
100
AcDbEntity
  8
0
  6
DASHED2
 62
     5
100
AcDbLine
 10
345.2310437109724
 20
317.4545049063336
 30
0.0
 11
360.2310437109724
 21
317.4545049063336
 31
0.0
  0
LINE
  5
417
330
1F
100
AcDbEntity
  8
0
  6
DASHED2
 62
     5
100
AcDbLine
 10
360.2310437109724
 20
296.4545049063336
 30
0.0
 11
385.2310437109724
 21
296.4545049063336
 31
0.0
  0
LINE
  5
418
330
1F
100
AcDbEntity
  8
0
  6
DASHED2
 62
     5
100
AcDbLine
 10
345.2310437109724
 20
294.4545049063336
 30
0.0
 11
360.2310437109724
 21
294.4545049063336
 31
0.0
  0
LINE
  5
419
330
1F
100
AcDbEntity
  8
0
  6
DASHED2
 62
     5
100
AcDbLine
 10
360.2310437109724
 20
294.4545049063336
 30
0.0
 11
360.2310437109724
 21
317.4545049063336
 31
0.0
  0
LINE
  5
41A
330
1F
100
AcDbEntity
  8
0
  6
DASHED2
 62
     5
100
AcDbLine
 10
385.2310437109724
 20
315.4545049063336
 30
0.0
 11
385.2310437109724
 21
296.4545049063336
 31
0.0
  0
LINE
  5
41B
330
1F
100
AcDbEntity
  8
0
  6
DASHED2
 62
     5
100
AcDbLine
 10
385.2310437109724
 20
296.4545049063336
 30
0.0
 11
390.7158712682738
 21
305.9545049063336
 31
0.0
  0
LINE
  5
41C
330
1F
100
AcDbEntity
  8
0
  6
DASHED2
 62
     5
100
AcDbLine
 10
385.2310437109724
 20
315.4545049063336
 30
0.0
 11
390.7158712682738
 21
305.9545049063336
 31
0.0
  0
INSERT
  5
41D
330
1F
100
AcDbEntity
  8
LAYER0013
  6
CONTINUOUS
100
AcDbBlockReference
  2
GROUP_7
 10
0.0
 20
0.0
 30
0.0
  0
INSERT
  5
41E
330
1F
100
AcDbEntity
  8
ZUWAKU
  6
CONTINUOUS
100
AcDbBlockReference
  2
GROUP_8
 10
0.0
 20
0.0
 30
0.0
  0
LINE
  5
41F
330
1F
100
AcDbEntity
  8
0
 62
     4
100
AcDbLine
 10
235.0
 20
185.0
 30
0.0
 11
555.0
 21
185.0
 31
0.0
  0
LINE
  5
420
330
1F
100
AcDbEntity
  8
0
 62
     4
100
AcDbLine
 10
235.0
 20
385.0000000000001
 30
0.0
 11
235.0
 21
185.0
 31
0.0
  0
LINE
  5
421
330
1F
100
AcDbEntity
  8
0
  6
DIVIDE
 62
     4
100
AcDbLine
 10
94.5811457448236
 20
-134.9571638276856
 30
0.0
 11
114.0716904510281
 21
-130.2794330981965
 31
0.0
  0
VIEWPORT
  5
30
330
1B
100
AcDbEntity
 67
     1
  8
0
100
AcDbViewport
 10
0.0
 20
0.0
 30
0.0
 40
3330.0
 41
2310.0
 68
     1
 69
     1
1001
ACAD
1000
MVIEW
1002
{
1070
    16
1010
0.0
1020
0.0
1030
0.0
1010
0.0
1020
0.0
1030
1.0
1040
0.0
1040
2310.0
1040
0.0
1040
0.0
1040
50.0
1040
0.0
1040
0.0
1070
     0
1070
   100
1070
     0
1070
     1
1070
     0
1070
     0
1070
     0
1070
     0
1040
0.0
1040
0.0
1040
0.0
1040
1.0
1040
1.0
1040
0.0
1040
0.0
1070
     0
1002
{
1002
}
1002
}
  0
ENDSEC
  0
SECTION
  2
OBJECTS
  0
DICTIONARY
  5
C
330
0
100
AcDbDictionary
  3
ACAD_GROUP
350
D
  3
ACAD_LAYOUT
350
1A
  3
ACAD_MLINESTYLE
350
17
  3
ACAD_PLOTSETTINGS
350
19
  3
ACDBHEADERROUNDTRIPXREC
350
422
  0
DICTIONARY
  5
442
330
29
100
AcDbDictionary
280
     1
  3
ACAD_XREC_ROUNDTRIP
360
443
  0
DICTIONARY
  5
D
102
{ACAD_REACTORS
330
C
102
}
330
C
100
AcDbDictionary
  0
DICTIONARY
  5
1A
102
{ACAD_REACTORS
330
C
102
}
330
C
100
AcDbDictionary
  0
DICTIONARY
  5
17
102
{ACAD_REACTORS
330
C
102
}
330
C
100
AcDbDictionary
  3
STANDARD
350
18
  0
DICTIONARY
  5
19
102
{ACAD_REACTORS
330
C
102
}
330
C
100
AcDbDictionary
  0
DICTIONARY
  5
422
102
{ACAD_REACTORS
330
C
102
}
330
C
100
AcDbDictionary
  3
CEPSNTYPE
350
42B
  3
DIMSTYLEDATA
350
441
  3
FINGERPRINTGUID
350
42C
  3
HYPERLINKBASE
350
425
  3
INSUNITS
350
42A
  3
LAYOUTDICT
350
427
  3
LWETCUNION
350
429
  3
PLOTSETDICT
350
428
  3
PSVPSCALE
350
42E
  3
PUCSBASE
350
431
  3
PUCSORGBACK
350
437
  3
PUCSORGBOTTOM
350
433
  3
PUCSORGFRONT
350
436
  3
PUCSORGLEFT
350
434
  3
PUCSORGRIGHT
350
435
  3
PUCSORGTOP
350
432
  3
PUCSORTHOREF
350
42F
  3
PUCSORTHOVIEW
350
430
  3
STYLESHEET
350
426
  3
TSTACKALIGN
350
423
  3
TSTACKSIZE
350
424
  3
UCSBASE
350
43A
  3
UCSORGBACK
350
440
  3
UCSORGBOTTOM
350
43C
  3
UCSORGFRONT
350
43F
  3
UCSORGLEFT
350
43D
  3
UCSORGRIGHT
350
43E
  3
UCSORGTOP
350
43B
  3
UCSORTHOREF
350
438
  3
UCSORTHOVIEW
350
439
  3
VERSIONGUID
350
42D
  0
XRECORD
  5
443
102
{ACAD_REACTORS
330
442
102
}
330
442
100
AcDbXrecord
102
UCS
 74
     0
 71
     1
 10
0.0
 20
0.0
 30
0.0
 10
1.0
 20
0.0
 30
0.0
 10
0.0
 20
1.0
 30
0.0
146
0.0
 79
     0
102
VIEW
281
     0
  0
MLINESTYLE
  5
18
102
{ACAD_REACTORS
330
17
102
}
330
17
100
AcDbMlineStyle
  2
Standard
 70
     0
  3

 62
   256
 51
90.0
 52
90.0
 71
     2
 49
0.5
 62
   256
  6
BYLAYER
 49
-0.5
 62
   256
  6
BYLAYER
  0
XRECORD
  5
42B
102
{ACAD_REACTORS
330
422
102
}
330
422
100
AcDbXrecord
 90
        0
  0
XRECORD
  5
441
102
{ACAD_REACTORS
330
422
102
}
330
422
100
AcDbXrecord
1000
DSTYLE
1002
{
1070
   171
 70
     2
1070
   143
 40
25.4
1070
   274
 70
     2
1070
    41
 40
0.18
1070
   141
 40
0.09
1070
   271
 70
     4
1070
    43
 40
0.38
1070
    44
 40
0.18
1070
   278
 70
    46
1070
    42
 40
0.0625
1070
   147
 40
0.09
1070
    77
 70
     3
1070
   272
 70
     4
1070
    73
 70
     1
1070
   172
 70
     0
1070
    74
 70
     1
1070
   283
 70
     1
1070
   340
340
11
1070
   140
 40
0.18
1070
   284
 70
     0
1070
    78
 70
     0
1002
}
  0
XRECORD
  5
42C
102
{ACAD_REACTORS
330
422
102
}
330
422
100
AcDbXrecord
  1
{FAEB1C30-E019-11D5-929B-00C0DF256EC4}
  0
XRECORD
  5
425
102
{ACAD_REACTORS
330
422
102
}
330
422
100
AcDbXrecord
  1

  0
XRECORD
  5
42A
102
{ACAD_REACTORS
330
422
102
}
330
422
100
AcDbXrecord
 90
        4
  0
XRECORD
  5
427
102
{ACAD_REACTORS
330
422
102
}
330
422
100
AcDbXrecord
340
1A
  0
XRECORD
  5
429
102
{ACAD_REACTORS
330
422
102
}
330
422
100
AcDbXrecord
 90
    10752
  0
XRECORD
  5
428
102
{ACAD_REACTORS
330
422
102
}
330
422
100
AcDbXrecord
340
19
  0
XRECORD
  5
42E
102
{ACAD_REACTORS
330
422
102
}
330
422
100
AcDbXrecord
 40
0.0
  0
XRECORD
  5
431
102
{ACAD_REACTORS
330
422
102
}
330
422
100
AcDbXrecord
340
0
  0
XRECORD
  5
437
102
{ACAD_REACTORS
330
422
102
}
330
422
100
AcDbXrecord
 10
0.0
 20
0.0
 30
0.0
  0
XRECORD
  5
433
102
{ACAD_REACTORS
330
422
102
}
330
422
100
AcDbXrecord
 10
0.0
 20
0.0
 30
0.0
  0
XRECORD
  5
436
102
{ACAD_REACTORS
330
422
102
}
330
422
100
AcDbXrecord
 10
0.0
 20
0.0
 30
0.0
  0
XRECORD
  5
434
102
{ACAD_REACTORS
330
422
102
}
330
422
100
AcDbXrecord
 10
0.0
 20
0.0
 30
0.0
  0
XRECORD
  5
435
102
{ACAD_REACTORS
330
422
102
}
330
422
100
AcDbXrecord
 10
0.0
 20
0.0
 30
0.0
  0
XRECORD
  5
432
102
{ACAD_REACTORS
330
422
102
}
330
422
100
AcDbXrecord
 10
0.0
 20
0.0
 30
0.0
  0
XRECORD
  5
42F
102
{ACAD_REACTORS
330
422
102
}
330
422
100
AcDbXrecord
340
0
  0
XRECORD
  5
430
102
{ACAD_REACTORS
330
422
102
}
330
422
100
AcDbXrecord
 70
     0
  0
XRECORD
  5
426
102
{ACAD_REACTORS
330
422
102
}
330
422
100
AcDbXrecord
  1

  0
XRECORD
  5
423
102
{ACAD_REACTORS
330
422
102
}
330
422
100
AcDbXrecord
 90
        1
  0
XRECORD
  5
424
102
{ACAD_REACTORS
330
422
102
}
330
422
100
AcDbXrecord
 90
       70
  0
XRECORD
  5
43A
102
{ACAD_REACTORS
330
422
102
}
330
422
100
AcDbXrecord
340
0
  0
XRECORD
  5
440
102
{ACAD_REACTORS
330
422
102
}
330
422
100
AcDbXrecord
 10
0.0
 20
0.0
 30
0.0
  0
XRECORD
  5
43C
102
{ACAD_REACTORS
330
422
102
}
330
422
100
AcDbXrecord
 10
0.0
 20
0.0
 30
0.0
  0
XRECORD
  5
43F
102
{ACAD_REACTORS
330
422
102
}
330
422
100
AcDbXrecord
 10
0.0
 20
0.0
 30
0.0
  0
XRECORD
  5
43D
102
{ACAD_REACTORS
330
422
102
}
330
422
100
AcDbXrecord
 10
0.0
 20
0.0
 30
0.0
  0
XRECORD
  5
43E
102
{ACAD_REACTORS
330
422
102
}
330
422
100
AcDbXrecord
 10
0.0
 20
0.0
 30
0.0
  0
XRECORD
  5
43B
102
{ACAD_REACTORS
330
422
102
}
330
422
100
AcDbXrecord
 10
0.0
 20
0.0
 30
0.0
  0
XRECORD
  5
438
102
{ACAD_REACTORS
330
422
102
}
330
422
100
AcDbXrecord
340
0
  0
XRECORD
  5
439
102
{ACAD_REACTORS
330
422
102
}
330
422
100
AcDbXrecord
 70
     0
  0
XRECORD
  5
42D
102
{ACAD_REACTORS
330
422
102
}
330
422
100
AcDbXrecord
  1
{FAEB1C32-E019-11D5-929B-00C0DF256EC4}
  0
ENDSEC
  0
EOF
