  0
SECTION
  2
HEADER
  9
$ACADVER
  1
AC1014
  9
$ACADMAINTVER
 70
     9
  9
$DWGCODEPAGE
  3
ANSI_932
  9
$INSBASE
 10
0.0
 20
0.0
 30
0.0
  9
$EXTMIN
 10
-1665.0
 20
-1155.0
 30
0.0
  9
$EXTMAX
 10
1665.0
 20
1155.0
 30
0.0
  9
$LIMMIN
 10
-557.0
 20
-407.0
  9
$LIMMAX
 10
557.0
 20
407.0
  9
$ORTHOMODE
 70
     0
  9
$REGENMODE
 70
     0
  9
$FILLMODE
 70
     1
  9
$QTEXTMODE
 70
     0
  9
$MIRRTEXT
 70
     1
  9
$DRAGMODE
 70
     2
  9
$LTSCALE
 40
2.0
  9
$OSMODE
 70
    37
  9
$ATTMODE
 70
     1
  9
$TEXTSIZE
 40
0.2
  9
$TRACEWID
 40
0.05
  9
$TEXTSTYLE
  7
STANDARD
  9
$CLAYER
  8
0
  9
$CELTYPE
  6
BYLAYER
  9
$CECOLOR
 62
   256
  9
$CELTSCALE
 40
1.0
  9
$DELOBJ
 70
     1
  9
$DISPSILH
 70
     0
  9
$DIMSCALE
 40
1.0
  9
$DIMASZ
 40
0.18
  9
$DIMEXO
 40
0.0625
  9
$DIMDLI
 40
0.38
  9
$DIMRND
 40
0.0
  9
$DIMDLE
 40
0.0
  9
$DIMEXE
 40
0.18
  9
$DIMTP
 40
0.0
  9
$DIMTM
 40
0.0
  9
$DIMTXT
 40
0.18
  9
$DIMCEN
 40
0.09
  9
$DIMTSZ
 40
0.0
  9
$DIMTOL
 70
     0
  9
$DIMLIM
 70
     0
  9
$DIMTIH
 70
     1
  9
$DIMTOH
 70
     1
  9
$DIMSE1
 70
     0
  9
$DIMSE2
 70
     0
  9
$DIMTAD
 70
     3
  9
$DIMZIN
 70
     0
  9
$DIMBLK
  1

  9
$DIMASO
 70
     1
  9
$DIMSHO
 70
     1
  9
$DIMPOST
  1

  9
$DIMAPOST
  1

  9
$DIMALT
 70
     0
  9
$DIMALTD
 70
     2
  9
$DIMALTF
 40
25.4
  9
$DIMLFAC
 40
1.0
  9
$DIMTOFL
 70
     0
  9
$DIMTVP
 40
0.0
  9
$DIMTIX
 70
     0
  9
$DIMSOXD
 70
     0
  9
$DIMSAH
 70
     0
  9
$DIMBLK1
  1

  9
$DIMBLK2
  1

  9
$DIMSTYLE
  2
STANDARD
  9
$DIMCLRD
 70
     0
  9
$DIMCLRE
 70
     0
  9
$DIMCLRT
 70
     0
  9
$DIMTFAC
 40
1.0
  9
$DIMGAP
 40
0.09
  9
$DIMJUST
 70
     0
  9
$DIMSD1
 70
     0
  9
$DIMSD2
 70
     0
  9
$DIMTOLJ
 70
     1
  9
$DIMTZIN
 70
     0
  9
$DIMALTZ
 70
     0
  9
$DIMALTTZ
 70
     0
  9
$DIMFIT
 70
     3
  9
$DIMUPT
 70
     0
  9
$DIMUNIT
 70
     2
  9
$DIMDEC
 70
     4
  9
$DIMTDEC
 70
     4
  9
$DIMALTU
 70
     2
  9
$DIMALTTD
 70
     2
  9
$DIMTXSTY
  7
STANDARD
  9
$DIMAUNIT
 70
     0
  9
$LUNITS
 70
     2
  9
$LUPREC
 70
     4
  9
$SKETCHINC
 40
0.1
  9
$FILLETRAD
 40
0.5
  9
$AUNITS
 70
     0
  9
$AUPREC
 70
     0
  9
$MENU
  1
.
  9
$ELEVATION
 40
0.0
  9
$PELEVATION
 40
0.0
  9
$THICKNESS
 40
0.0
  9
$LIMCHECK
 70
     1
  9
$CHAMFERA
 40
0.5
  9
$CHAMFERB
 40
0.5
  9
$CHAMFERC
 40
1.0
  9
$CHAMFERD
 40
0.0
  9
$SKPOLY
 70
     0
  9
$TDCREATE
 40
0.0
  9
$TDUPDATE
 40
2453323.369057257
  9
$TDINDWG
 40
0.0000000116
  9
$TDUSRTIMER
 40
0.0000000116
  9
$USRTIMER
 70
     1
  9
$ANGBASE
 50
0.0
  9
$ANGDIR
 70
     0
  9
$PDMODE
 70
     0
  9
$PDSIZE
 40
1.0
  9
$PLINEWID
 40
0.0
  9
$COORDS
 70
     1
  9
$SPLFRAME
 70
     0
  9
$SPLINETYPE
 70
     6
  9
$SPLINESEGS
 70
     8
  9
$ATTDIA
 70
     0
  9
$ATTREQ
 70
     1
  9
$HANDLING
 70
     1
  9
$HANDSEED
  5
4A4
  9
$SURFTAB1
 70
     6
  9
$SURFTAB2
 70
     6
  9
$SURFTYPE
 70
     6
  9
$SURFU
 70
     6
  9
$SURFV
 70
     6
  9
$UCSNAME
  2

  9
$UCSORG
 10
0.0
 20
0.0
 30
0.0
  9
$UCSXDIR
 10
1.0
 20
0.0
 30
0.0
  9
$UCSYDIR
 10
0.0
 20
1.0
 30
0.0
  9
$PUCSNAME
  2

  9
$PUCSORG
 10
0.0
 20
0.0
 30
0.0
  9
$PUCSXDIR
 10
1.0
 20
0.0
 30
0.0
  9
$PUCSYDIR
 10
0.0
 20
1.0
 30
0.0
  9
$USERI1
 70
     0
  9
$USERI2
 70
     0
  9
$USERI3
 70
     0
  9
$USERI4
 70
     0
  9
$USERI5
 70
     0
  9
$USERR1
 40
0.0
  9
$USERR2
 40
0.0
  9
$USERR3
 40
0.0
  9
$USERR4
 40
0.0
  9
$USERR5
 40
0.0
  9
$WORLDVIEW
 70
     1
  9
$SHADEDGE
 70
     3
  9
$SHADEDIF
 70
    70
  9
$TILEMODE
 70
     1
  9
$MAXACTVP
 70
    64
  9
$PINSBASE
 10
0.0
 20
0.0
 30
0.0
  9
$PLIMCHECK
 70
     1
  9
$PEXTMIN
 10
1.000000000000000E+20
 20
1.000000000000000E+20
 30
1.000000000000000E+20
  9
$PEXTMAX
 10
-1.000000000000000E+20
 20
-1.000000000000000E+20
 30
-1.000000000000000E+20
  9
$PLIMMIN
 10
0.0
 20
0.0
  9
$PLIMMAX
 10
12.0
 20
9.0
  9
$UNITMODE
 70
     0
  9
$VISRETAIN
 70
     0
  9
$PLINEGEN
 70
     1
  9
$PSLTSCALE
 70
     0
  9
$TREEDEPTH
 70
  3020
  9
$PICKSTYLE
 70
     1
  9
$CMLSTYLE
  2
STANDARD
  9
$CMLJUST
 70
     0
  9
$CMLSCALE
 40
1.0
  9
$PROXYGRAPHICS
 70
     0
  9
$MEASUREMENT
 70
     1
  0
ENDSEC
  0
SECTION
  2
CLASSES
  0
CLASS
  1
ACDBDICTIONARYWDFLT
  2
AcDbDictionaryWithDefault
  3
ObjectDBX Classes
 90
        0
280
     0
281
     0
  0
CLASS
  1
XRECORD
  2
AcDbXrecord
  3
AutoCAD 2000
 90
        0
280
     0
281
     0
  0
CLASS
  1
LWPOLYLINE
  2
AcDbPolyline
  3
AutoCAD 2000
 90
        0
280
     0
281
     1
  0
CLASS
  1
HATCH
  2
AcDbHatch
  3
AutoCAD 2000
 90
        0
280
     0
281
     1
  0
CLASS
  1
ACDBPLACEHOLDER
  2
AcDbPlaceHolder
  3
ObjectDBX Classes
 90
        0
280
     0
281
     0
  0
CLASS
  1
LAYOUT
  2
AcDbLayout
  3
ObjectDBX Classes
 90
        0
280
     0
281
     0
  0
ENDSEC
  0
SECTION
  2
TABLES
  0
TABLE
  2
VPORT
  5
8
330
0
100
AcDbSymbolTable
 70
     2
  0
VPORT
  5
29
102
{ACAD_XDICTIONARY
360
4A2
102
}
330
8
100
AcDbSymbolTableRecord
100
AcDbViewportTableRecord
  2
*ACTIVE
 70
     0
 10
0.0
 20
0.0
 11
1.0
 21
1.0
 12
0.0
 22
0.0
 13
0.0
 23
0.0
 14
0.5
 24
0.5
 15
0.5
 25
0.5
 16
0.0
 26
0.0
 36
1.0
 17
0.0
 27
0.0
 37
0.0
 40
770.0077
 41
1.972972972850329
 42
50.0
 43
0.0
 44
0.0
 50
0.0
 51
0.0
 71
     0
 72
   100
 73
     1
 74
     1
 75
     0
 76
     0
 77
     0
 78
     0
  0
ENDTAB
  0
TABLE
  2
LTYPE
  5
5
330
0
100
AcDbSymbolTable
 70
    28
  0
LTYPE
  5
14
330
5
100
AcDbSymbolTableRecord
100
AcDbLinetypeTableRecord
  2
BYBLOCK
 70
     0
  3

 72
    65
 73
     0
 40
0.0
  0
LTYPE
  5
15
330
5
100
AcDbSymbolTableRecord
100
AcDbLinetypeTableRecord
  2
BYLAYER
 70
     0
  3

 72
    65
 73
     0
 40
0.0
  0
LTYPE
  5
16
330
5
100
AcDbSymbolTableRecord
100
AcDbLinetypeTableRecord
  2
CONTINUOUS
 70
     0
  3
Solid line
 72
    65
 73
     0
 40
0.0
  0
LTYPE
  5
31
330
5
100
AcDbSymbolTableRecord
100
AcDbLinetypeTableRecord
  2
HIDDENX2
 70
     0
  3
CADPAC LINETYPE
 72
    65
 73
     2
 40
9.93755575379123
 49
7.453166815343423
 74
     0
 49
-2.484388938447808
 74
     0
  0
LTYPE
  5
32
330
5
100
AcDbSymbolTableRecord
100
AcDbLinetypeTableRecord
  2
HIDDEN
 70
     0
  3
CADPAC LINETYPE
 72
    65
 73
     2
 40
7.453166815343423
 49
4.968777876895615
 74
     0
 49
-2.484388938447808
 74
     0
  0
LTYPE
  5
33
330
5
100
AcDbSymbolTableRecord
100
AcDbLinetypeTableRecord
  2
HIDDEN2
 70
     0
  3
CADPAC LINETYPE
 72
    65
 73
     2
 40
6.210972346119519
 49
3.726583407671711
 74
     0
 49
-2.484388938447808
 74
     0
  0
LTYPE
  5
34
330
5
100
AcDbSymbolTableRecord
100
AcDbLinetypeTableRecord
  2
DASHED
 70
     0
  3
CADPAC LINETYPE
 72
    65
 73
     2
 40
6.956289027653895
 49
4.968777876895615
 74
     0
 49
-1.98751115075828
 74
     0
  0
LTYPE
  5
35
330
5
100
AcDbSymbolTableRecord
100
AcDbLinetypeTableRecord
  2
DASHED2
 70
     0
  3
CADPAC LINETYPE
 72
    65
 73
     2
 40
4.471900089206088
 49
2.981266726137392
 74
     0
 49
-1.490633363068696
 74
     0
  0
LTYPE
  5
36
330
5
100
AcDbSymbolTableRecord
100
AcDbLinetypeTableRecord
  2
DASHEDX2
 70
     0
  3
CADPAC LINETYPE
 72
    65
 73
     2
 40
11.92506690454957
 49
9.937555753791287
 74
     0
 49
-1.98751115075828
 74
     0
  0
LTYPE
  5
37
330
5
100
AcDbSymbolTableRecord
100
AcDbLinetypeTableRecord
  2
DOTX2
 70
     0
  3
CADPAC LINETYPE
 72
    65
 73
     2
 40
4.34768064228372
 49
0.0
 74
     0
 49
-4.34768064228372
 74
     0
  0
LTYPE
  5
38
330
5
100
AcDbSymbolTableRecord
100
AcDbLinetypeTableRecord
  2
DOT
 70
     0
  3
CADPAC LINETYPE
 72
    65
 73
     2
 40
3.478144513826976
 49
0.0
 74
     0
 49
-3.478144513826976
 74
     0
  0
LTYPE
  5
39
330
5
100
AcDbSymbolTableRecord
100
AcDbLinetypeTableRecord
  2
DOT2
 70
     0
  3
CADPAC LINETYPE
 72
    65
 73
     2
 40
2.608608385370232
 49
0.0
 74
     0
 49
-2.608608385370232
 74
     0
  0
LTYPE
  5
3A
330
5
100
AcDbSymbolTableRecord
100
AcDbLinetypeTableRecord
  2
CENTERX2
 70
     0
  3
CADPAC LINETYPE
 72
    65
 73
     4
 40
14.90633363068685
 49
6.210972346119519
 74
     0
 49
-3.105486173059759
 74
     0
 49
2.484388938447808
 74
     0
 49
-3.105486173059759
 74
     0
  0
LTYPE
  5
3B
330
5
100
AcDbSymbolTableRecord
100
AcDbLinetypeTableRecord
  2
CENTER
 70
     0
  3
CADPAC LINETYPE
 72
    65
 73
     4
 40
11.42818911685992
 49
4.968777876895615
 74
     0
 49
-2.484388938447808
 74
     0
 49
1.490633363068685
 74
     0
 49
-2.484388938447808
 74
     0
  0
LTYPE
  5
3C
330
5
100
AcDbSymbolTableRecord
100
AcDbLinetypeTableRecord
  2
CENTER2
 70
     0
  3
CADPAC LINETYPE
 72
    65
 73
     4
 40
7.950044603032984
 49
3.726583407671711
 74
     0
 49
-1.863291703835856
 74
     0
 49
0.4968777876895615
 74
     0
 49
-1.863291703835856
 74
     0
  0
LTYPE
  5
3D
330
5
100
AcDbSymbolTableRecord
100
AcDbLinetypeTableRecord
  2
DASHDOTX2
 70
     0
  3
CADPAC LINETYPE
 72
    65
 73
     4
 40
23.85013380909925
 49
11.92506690454957
 74
     0
 49
-3.97502230151656
 74
     0
 49
3.97502230151656
 74
     0
 49
-3.97502230151656
 74
     0
  0
LTYPE
  5
3E
330
5
100
AcDbSymbolTableRecord
100
AcDbLinetypeTableRecord
  2
DASHDOT
 70
     0
  3
CADPAC LINETYPE
 72
    65
 73
     4
 40
11.92506690454957
 49
5.962533452274727
 74
     0
 49
-1.98751115075828
 74
     0
 49
1.98751115075828
 74
     0
 49
-1.98751115075828
 74
     0
  0
LTYPE
  5
3F
330
5
100
AcDbSymbolTableRecord
100
AcDbLinetypeTableRecord
  2
DASHDOT2
 70
     0
  3
CADPAC LINETYPE
 72
    65
 73
     4
 40
7.651917930419293
 49
4.471900089206045
 74
     0
 49
-1.49063336306871
 74
     0
 49
0.198751115075828
 74
     0
 49
-1.49063336306871
 74
     0
  0
LTYPE
  5
40
330
5
100
AcDbSymbolTableRecord
100
AcDbLinetypeTableRecord
  2
DIVIDEX2
 70
     0
  3
CADPAC LINETYPE
 72
    65
 73
     6
 40
31.80017841213237
 49
11.92506690454957
 74
     0
 49
-3.97502230151656
 74
     0
 49
3.97502230151656
 74
     0
 49
-3.97502230151656
 74
     0
 49
3.97502230151656
 74
     0
 49
-3.97502230151656
 74
     0
  0
LTYPE
  5
41
330
5
100
AcDbSymbolTableRecord
100
AcDbLinetypeTableRecord
  2
DIVIDE
 70
     0
  3
CADPAC LINETYPE
 72
    65
 73
     6
 40
15.90008920606613
 49
5.962533452274727
 74
     0
 49
-1.98751115075828
 74
     0
 49
1.98751115075828
 74
     0
 49
-1.98751115075828
 74
     0
 49
1.98751115075828
 74
     0
 49
-1.98751115075828
 74
     0
  0
LTYPE
  5
42
330
5
100
AcDbSymbolTableRecord
100
AcDbLinetypeTableRecord
  2
DIVIDE2
 70
     0
  3
CADPAC LINETYPE
 72
    65
 73
     6
 40
11.9250669045496
 49
4.471900089206045
 74
     0
 49
-1.49063336306871
 74
     0
 49
1.49063336306871
 74
     0
 49
-1.49063336306871
 74
     0
 49
1.49063336306871
 74
     0
 49
-1.49063336306871
 74
     0
  0
LTYPE
  5
43
330
5
100
AcDbSymbolTableRecord
100
AcDbLinetypeTableRecord
  2
BORDERX2
 70
     0
  3
CADPAC LINETYPE
 72
    65
 73
     6
 40
21.73840321141832
 49
6.210972346119519
 74
     0
 49
-3.105486173059759
 74
     0
 49
6.210972346119519
 74
     0
 49
-3.105486173059759
 74
     0
 49
0.0
 74
     0
 49
-3.105486173059759
 74
     0
  0
LTYPE
  5
44
330
5
100
AcDbSymbolTableRecord
100
AcDbLinetypeTableRecord
  2
BORDER
 70
     0
  3
CADPAC LINETYPE
 72
    65
 73
     6
 40
17.39072256913465
 49
4.968777876895615
 74
     0
 49
-2.484388938447808
 74
     0
 49
4.968777876895615
 74
     0
 49
-2.484388938447808
 74
     0
 49
0.0
 74
     0
 49
-2.484388938447808
 74
     0
  0
LTYPE
  5
45
330
5
100
AcDbSymbolTableRecord
100
AcDbLinetypeTableRecord
  2
BORDER2
 70
     0
  3
CADPAC LINETYPE
 72
    65
 73
     6
 40
12.91882247992868
 49
3.97502230151656
 74
     0
 49
-2.484388938447808
 74
     0
 49
1.490633363068696
 74
     0
 49
-2.484388938447808
 74
     0
 49
0.0
 74
     0
 49
-2.484388938447808
 74
     0
  0
LTYPE
  5
46
330
5
100
AcDbSymbolTableRecord
100
AcDbLinetypeTableRecord
  2
PHANTOMX2
 70
     0
  3
CADPAC LINETYPE
 72
    65
 73
     6
 40
18.63291703835856
 49
6.210972346119519
 74
     0
 49
-2.484388938447808
 74
     0
 49
2.484388938447808
 74
     0
 49
-2.484388938447808
 74
     0
 49
2.484388938447808
 74
     0
 49
-2.484388938447808
 74
     0
  0
LTYPE
  5
47
330
5
100
AcDbSymbolTableRecord
100
AcDbLinetypeTableRecord
  2
PHANTOM
 70
     0
  3
CADPAC LINETYPE
 72
    65
 73
     6
 40
15.40321141837641
 49
4.968777876895615
 74
     0
 49
-2.484388938447808
 74
     0
 49
1.490633363068685
 74
     0
 49
-2.484388938447808
 74
     0
 49
1.490633363068685
 74
     0
 49
-2.484388938447808
 74
     0
  0
LTYPE
  5
48
330
5
100
AcDbSymbolTableRecord
100
AcDbLinetypeTableRecord
  2
PHANTOM2
 70
     0
  3
CADPAC LINETYPE
 72
    65
 73
     6
 40
13.16726137377338
 49
3.726583407671711
 74
     0
 49
-2.484388938447808
 74
     0
 49
0.9937555753791231
 74
     0
 49
-2.484388938447808
 74
     0
 49
0.9937555753791231
 74
     0
 49
-2.484388938447808
 74
     0
  0
LTYPE
  5
49
330
5
100
AcDbSymbolTableRecord
100
AcDbLinetypeTableRecord
  2
ACAD_ISO06W100
 70
     0
  3
CADPAC LINETYPE
 72
    65
 73
     8
 40
26.33452274754689
 49
11.92506690454957
 74
     0
 49
-2.484388938447808
 74
     0
 49
1.490633363068696
 74
     0
 49
-2.484388938447808
 74
     0
 49
1.490633363068696
 74
     0
 49
-2.484388938447808
 74
     0
 49
1.490633363068696
 74
     0
 49
-2.484388938447808
 74
     0
  0
LTYPE
  5
4A
330
5
100
AcDbSymbolTableRecord
100
AcDbLinetypeTableRecord
  2
ACAD_ISO13W100
 70
     0
  3
CADPAC LINETYPE
 72
    65
 73
     8
 40
19.87511150758246
 49
4.968777876895615
 74
     0
 49
-2.484388938447808
 74
     0
 49
4.968777876895615
 74
     0
 49
-2.484388938447808
 74
     0
 49
0.0
 74
     0
 49
-2.484388938447808
 74
     0
 49
0.0
 74
     0
 49
-2.484388938447808
 74
     0
  0
LTYPE
  5
4B
330
5
100
AcDbSymbolTableRecord
100
AcDbLinetypeTableRecord
  2
ACAD_ISO14W100
 70
     0
  3
CADPAC LINETYPE
 72
    65
 73
     8
 40
14.90633363068685
 49
4.968777876895615
 74
     0
 49
-2.484388938447808
 74
     0
 49
0.0
 74
     0
 49
-2.484388938447808
 74
     0
 49
0.0
 74
     0
 49
-2.484388938447808
 74
     0
 49
0.0
 74
     0
 49
-2.484388938447808
 74
     0
  0
ENDTAB
  0
TABLE
  2
LAYER
  5
2
330
0
100
AcDbSymbolTable
 70
     5
  0
LAYER
  5
10
330
2
100
AcDbSymbolTableRecord
100
AcDbLayerTableRecord
  2
0
 70
     0
 62
     7
  6
CONTINUOUS
  0
LAYER
  5
2B
330
2
100
AcDbSymbolTableRecord
100
AcDbLayerTableRecord
  2
LAYER0002
 70
     0
 62
     7
  6
CONTINUOUS
  0
LAYER
  5
2C
330
2
100
AcDbSymbolTableRecord
100
AcDbLayerTableRecord
  2
LAYER0013
 70
     0
 62
     7
  6
CONTINUOUS
  0
LAYER
  5
2D
330
2
100
AcDbSymbolTableRecord
100
AcDbLayerTableRecord
  2
LAYER0014
 70
     0
 62
     7
  6
CONTINUOUS
  0
LAYER
  5
2E
330
2
100
AcDbSymbolTableRecord
100
AcDbLayerTableRecord
  2
ZUWAKU
 70
     0
 62
     7
  6
CONTINUOUS
  0
ENDTAB
  0
TABLE
  2
STYLE
  5
3
330
0
100
AcDbSymbolTable
 70
     3
  0
STYLE
  5
11
330
3
100
AcDbSymbolTableRecord
100
AcDbTextStyleTableRecord
  2
STANDARD
 70
     0
 40
0.0
 41
1.0
 50
0.0
 71
     0
 42
0.2
  3
txt
  4

  0
STYLE
  5
2F
330
3
100
AcDbSymbolTableRecord
100
AcDbTextStyleTableRecord
  2
DAVECTORFONT
 70
     0
 40
8.0
 41
1.0
 50
0.0
 71
     0
 42
0.2
  3
txt.shx
  4
bigfont.shx
  0
STYLE
  5
177
330
3
100
AcDbSymbolTableRecord
100
AcDbTextStyleTableRecord
  2
FDASTYLE0
 70
     0
 40
10.0
 41
1.0
 50
0.0
 71
     0
 42
0.2
  3
hgrsgu.ttc
  4

1001
ACAD
1000
HGS創英角ｺﾞｼｯｸUB
1071
       34
  0
ENDTAB
  0
TABLE
  2
VIEW
  5
6
330
0
100
AcDbSymbolTable
 70
     0
  0
ENDTAB
  0
TABLE
  2
UCS
  5
7
330
0
100
AcDbSymbolTable
 70
     0
  0
ENDTAB
  0
TABLE
  2
APPID
  5
9
330
0
100
AcDbSymbolTable
 70
     2
  0
APPID
  5
12
330
9
100
AcDbSymbolTableRecord
100
AcDbRegAppTableRecord
  2
ACAD
 70
     0
  0
APPID
  5
2A
330
9
100
AcDbSymbolTableRecord
100
AcDbRegAppTableRecord
  2
DAFUSIONOUT
 70
     0
  0
ENDTAB
  0
TABLE
  2
DIMSTYLE
  5
A
330
0
100
AcDbSymbolTable
 70
     1
  0
DIMSTYLE
105
27
330
A
100
AcDbSymbolTableRecord
100
AcDbDimStyleTableRecord
  2
STANDARD
 70
     0
  3

  4

  5

  6

  7

 40
1.0
 41
0.18
 42
0.0625
 43
0.38
 44
0.18
 45
0.0
 46
0.0
 47
0.0
 48
0.0
140
0.18
141
0.09
142
0.0
143
25.4
144
1.0
145
0.0
146
1.0
147
0.09
 71
     0
 72
     0
 73
     1
 74
     1
 75
     0
 76
     0
 77
     0
 78
     0
170
     0
171
     2
172
     0
173
     0
174
     0
175
     0
176
     0
177
     0
178
     0
270
     2
271
     4
272
     4
273
     2
274
     2
340
11
275
     0
280
     0
281
     0
282
     0
283
     1
284
     0
285
     0
286
     0
287
     3
288
     0
  0
ENDTAB
  0
TABLE
  2
BLOCK_RECORD
  5
1
330
0
100
AcDbSymbolTable
 70
    34
  0
BLOCK_RECORD
  5
1F
330
1
100
AcDbSymbolTableRecord
100
AcDbBlockTableRecord
  2
*MODEL_SPACE
  0
BLOCK_RECORD
  5
1B
330
1
100
AcDbSymbolTableRecord
100
AcDbBlockTableRecord
  2
*PAPER_SPACE
  0
BLOCK_RECORD
  5
4C
330
1
100
AcDbSymbolTableRecord
100
AcDbBlockTableRecord
  2
DA_IMAGEDIMGROUP_1
  0
BLOCK_RECORD
  5
4F
330
1
100
AcDbSymbolTableRecord
100
AcDbBlockTableRecord
  2
_OPEN30
  0
BLOCK_RECORD
  5
52
330
1
100
AcDbSymbolTableRecord
100
AcDbBlockTableRecord
  2
DA_IMAGEDIMGROUP_2
  0
BLOCK_RECORD
  5
55
330
1
100
AcDbSymbolTableRecord
100
AcDbBlockTableRecord
  2
DA_IMAGEDIMGROUP_3
  0
BLOCK_RECORD
  5
58
330
1
100
AcDbSymbolTableRecord
100
AcDbBlockTableRecord
  2
DA_IMAGEDIMGROUP_4
  0
BLOCK_RECORD
  5
5B
330
1
100
AcDbSymbolTableRecord
100
AcDbBlockTableRecord
  2
DA_IMAGEDIMGROUP_5
  0
BLOCK_RECORD
  5
5E
330
1
100
AcDbSymbolTableRecord
100
AcDbBlockTableRecord
  2
DA_IMAGEDIMGROUP_6
  0
BLOCK_RECORD
  5
61
330
1
100
AcDbSymbolTableRecord
100
AcDbBlockTableRecord
  2
DA_IMAGEDIMGROUP_7
  0
BLOCK_RECORD
  5
64
330
1
100
AcDbSymbolTableRecord
100
AcDbBlockTableRecord
  2
DA_IMAGEDIMGROUP_8
  0
BLOCK_RECORD
  5
67
330
1
100
AcDbSymbolTableRecord
100
AcDbBlockTableRecord
  2
DA_IMAGEDIMGROUP_9
  0
BLOCK_RECORD
  5
6A
330
1
100
AcDbSymbolTableRecord
100
AcDbBlockTableRecord
  2
DA_IMAGEDIMGROUP_10
  0
BLOCK_RECORD
  5
6D
330
1
100
AcDbSymbolTableRecord
100
AcDbBlockTableRecord
  2
DA_IMAGEDIMGROUP_11
  0
BLOCK_RECORD
  5
70
330
1
100
AcDbSymbolTableRecord
100
AcDbBlockTableRecord
  2
DA_IMAGEDIMGROUP_12
  0
BLOCK_RECORD
  5
73
330
1
100
AcDbSymbolTableRecord
100
AcDbBlockTableRecord
  2
DA_IMAGEDIMGROUP_13
  0
BLOCK_RECORD
  5
76
330
1
100
AcDbSymbolTableRecord
100
AcDbBlockTableRecord
  2
DA_IMAGEDIMGROUP_14
  0
BLOCK_RECORD
  5
79
330
1
100
AcDbSymbolTableRecord
100
AcDbBlockTableRecord
  2
DA_IMAGEDIMGROUP_15
  0
BLOCK_RECORD
  5
7C
330
1
100
AcDbSymbolTableRecord
100
AcDbBlockTableRecord
  2
DA_IMAGEDIMGROUP_16
  0
BLOCK_RECORD
  5
7F
330
1
100
AcDbSymbolTableRecord
100
AcDbBlockTableRecord
  2
DA_IMAGEDIMGROUP_17
  0
BLOCK_RECORD
  5
82
330
1
100
AcDbSymbolTableRecord
100
AcDbBlockTableRecord
  2
DA_IMAGEDIMGROUP_18
  0
BLOCK_RECORD
  5
85
330
1
100
AcDbSymbolTableRecord
100
AcDbBlockTableRecord
  2
DA_IMAGEDIMGROUP_19
  0
BLOCK_RECORD
  5
88
330
1
100
AcDbSymbolTableRecord
100
AcDbBlockTableRecord
  2
DA_IMAGEDIMGROUP_20
  0
BLOCK_RECORD
  5
8B
330
1
100
AcDbSymbolTableRecord
100
AcDbBlockTableRecord
  2
DA_IMAGEDIMGROUP_21
  0
BLOCK_RECORD
  5
8E
330
1
100
AcDbSymbolTableRecord
100
AcDbBlockTableRecord
  2
GROUP_1
  0
BLOCK_RECORD
  5
91
330
1
100
AcDbSymbolTableRecord
100
AcDbBlockTableRecord
  2
GROUP_2
  0
BLOCK_RECORD
  5
94
330
1
100
AcDbSymbolTableRecord
100
AcDbBlockTableRecord
  2
GROUP_3
  0
BLOCK_RECORD
  5
97
330
1
100
AcDbSymbolTableRecord
100
AcDbBlockTableRecord
  2
DA_IMAGEDIMGROUP_22
  0
BLOCK_RECORD
  5
9A
330
1
100
AcDbSymbolTableRecord
100
AcDbBlockTableRecord
  2
DA_IMAGEDIMGROUP_23
  0
BLOCK_RECORD
  5
9D
330
1
100
AcDbSymbolTableRecord
100
AcDbBlockTableRecord
  2
DA_IMAGEDIMGROUP_24
  0
BLOCK_RECORD
  5
A0
330
1
100
AcDbSymbolTableRecord
100
AcDbBlockTableRecord
  2
GROUP_4
  0
BLOCK_RECORD
  5
A3
330
1
100
AcDbSymbolTableRecord
100
AcDbBlockTableRecord
  2
DA_IMAGEDIMGROUP_25
  0
BLOCK_RECORD
  5
A6
330
1
100
AcDbSymbolTableRecord
100
AcDbBlockTableRecord
  2
DA_IMAGEDIMGROUP_26
  0
BLOCK_RECORD
  5
A9
330
1
100
AcDbSymbolTableRecord
100
AcDbBlockTableRecord
  2
DA_IMAGEDIMGROUP_27
  0
BLOCK_RECORD
  5
AC
330
1
100
AcDbSymbolTableRecord
100
AcDbBlockTableRecord
  2
GROUP_5
  0
ENDTAB
  0
ENDSEC
  0
SECTION
  2
BLOCKS
  0
BLOCK
  5
20
330
1F
100
AcDbEntity
  8
0
100
AcDbBlockBegin
  2
*MODEL_SPACE
 70
     0
 71
     0
 10
0.0
 20
0.0
 30
0.0
  3
*MODEL_SPACE
  1

  0
ENDBLK
  5
21
330
1F
100
AcDbEntity
  8
0
100
AcDbBlockEnd
  0
BLOCK
  5
1C
330
1B
100
AcDbEntity
 67
     1
  8
0
100
AcDbBlockBegin
  2
*PAPER_SPACE
 70
     0
 71
     0
 10
0.0
 20
0.0
 30
0.0
  3
*PAPER_SPACE
  1

  0
ENDBLK
  5
1D
330
1B
100
AcDbEntity
 67
     1
  8
0
100
AcDbBlockEnd
  0
BLOCK
  5
4D
330
4C
100
AcDbEntity
  8
0
100
AcDbBlockBegin
  2
DA_IMAGEDIMGROUP_1
 70
     0
 71
     0
 10
0.0
 20
0.0
 30
0.0
  3
DA_IMAGEDIMGROUP_1
  1

  0
LINE
  5
AF
330
4C
100
AcDbEntity
  8
LAYER0014
 62
     2
100
AcDbLine
 10
-399.4108273501857
 20
-65.94223044297773
 30
0.0
 11
-399.4108273501857
 21
-43.44223044297773
 31
0.0
  0
LINE
  5
B0
330
4C
100
AcDbEntity
  8
LAYER0014
 62
     2
100
AcDbLine
 10
-382.4108273501857
 20
-64.94223044297773
 30
0.0
 11
-382.4108273501857
 21
-43.44223044297773
 31
0.0
  0
LINE
  5
B1
330
4C
100
AcDbEntity
  8
LAYER0014
 62
     2
100
AcDbLine
 10
-399.4108273501857
 20
-45.44223044297773
 30
0.0
 11
-382.4108273501857
 21
-45.44223044297773
 31
0.0
  0
LINE
  5
B2
330
4C
100
AcDbEntity
  8
LAYER0014
 62
     2
100
AcDbLine
 10
-373.6608273501857
 20
-45.44223044297773
 30
0.0
 11
-382.4108273501857
 21
-45.44223044297773
 31
0.0
  0
INSERT
  5
B3
330
4C
100
AcDbEntity
  8
LAYER0014
 62
     2
100
AcDbBlockReference
  2
_OPEN30
 10
-382.4108273501857
 20
-45.44223044297773
 30
0.0
 41
6.117281464870029
 42
4.025550470965561
 50
180.0
  0
LINE
  5
B4
330
4C
100
AcDbEntity
  8
LAYER0014
 62
     2
100
AcDbLine
 10
-408.1608273501857
 20
-45.44223044297773
 30
0.0
 11
-399.4108273501857
 21
-45.44223044297773
 31
0.0
  0
INSERT
  5
B5
330
4C
100
AcDbEntity
  8
LAYER0014
 62
     2
100
AcDbBlockReference
  2
_OPEN30
 10
-399.4108273501857
 20
-45.44223044297773
 30
0.0
 41
6.117281464870029
 42
4.025550470965561
 50
360.0
  0
TEXT
  5
B6
330
4C
100
AcDbEntity
  8
LAYER0014
 62
     2
100
AcDbText
 10
-397.3108273501857
 20
-43.44223044297773
 30
0.0
 40
8.0
  1
17
 41
0.9081081081081049
  7
DAVECTORFONT
 72
     5
 11
-384.5108273501858
 21
-43.44223044297773
 31
0.0
100
AcDbText
  0
ENDBLK
  5
4E
330
4C
100
AcDbEntity
  8
0
100
AcDbBlockEnd
  0
BLOCK
  5
50
330
4F
100
AcDbEntity
  8
0
100
AcDbBlockBegin
  2
_OPEN30
 70
     0
 71
     0
 10
0.0
 20
0.0
 30
0.0
  3
_OPEN30
  1

  0
LINE
  5
B7
330
4F
100
AcDbEntity
  8
0
 62
     0
100
AcDbLine
 10
0.0
 20
0.0
 30
0.0
 11
-0.9659258262890683
 21
0.2588190451025207
 31
0.0
  0
LINE
  5
B8
330
4F
100
AcDbEntity
  8
0
 62
     0
100
AcDbLine
 10
0.0
 20
0.0
 30
0.0
 11
-0.9659258262890683
 21
-0.2588190451025207
 31
0.0
  0
LINE
  5
B9
330
4F
100
AcDbEntity
  8
0
 62
     0
100
AcDbLine
 10
0.0
 20
0.0
 30
0.0
 11
-1.0
 21
0.0
 31
0.0
  0
ENDBLK
  5
51
330
4F
100
AcDbEntity
  8
0
100
AcDbBlockEnd
  0
BLOCK
  5
53
330
52
100
AcDbEntity
  8
0
100
AcDbBlockBegin
  2
DA_IMAGEDIMGROUP_2
 70
     0
 71
     0
 10
0.0
 20
0.0
 30
0.0
  3
DA_IMAGEDIMGROUP_2
  1

  0
LINE
  5
BA
330
52
100
AcDbEntity
  8
LAYER0014
 62
     2
100
AcDbLine
 10
-509.4108273501869
 20
-172.9422304429776
 30
0.0
 11
-509.4108273501869
 21
-20.94223044297772
 31
0.0
  0
LINE
  5
BB
330
52
100
AcDbEntity
  8
LAYER0014
 62
     2
100
AcDbLine
 10
-382.4108273501857
 20
-40.44223044297773
 30
0.0
 11
-382.4108273501857
 21
-20.94223044297773
 31
0.0
  0
LINE
  5
BC
330
52
100
AcDbEntity
  8
LAYER0014
 62
     2
100
AcDbLine
 10
-182.410827350185
 20
-64.94223044297782
 30
0.0
 11
-182.410827350185
 21
-20.94223044297773
 31
0.0
  0
LINE
  5
BD
330
52
100
AcDbEntity
  8
LAYER0014
 62
     2
100
AcDbLine
 10
268.5891726498195
 20
-221.9422304429777
 30
0.0
 11
268.5891726498195
 21
-20.94223044297772
 31
0.0
  0
LINE
  5
BE
330
52
100
AcDbEntity
  8
LAYER0014
 62
     2
100
AcDbLine
 10
197.5891726498157
 20
-88.44223044297794
 30
0.0
 11
197.5891726498157
 21
-20.94223044297773
 31
0.0
  0
LINE
  5
BF
330
52
100
AcDbEntity
  8
LAYER0014
 62
     2
100
AcDbLine
 10
-509.4108273501869
 20
-22.94223044297773
 30
0.0
 11
-382.4108273501857
 21
-22.94223044297773
 31
0.0
  0
INSERT
  5
C0
330
52
100
AcDbEntity
  8
LAYER0014
 62
     2
100
AcDbBlockReference
  2
_OPEN30
 10
-509.4108273501869
 20
-22.94223044297773
 30
0.0
 41
6.117281464870029
 42
4.025550470965561
 50
180.0
  0
INSERT
  5
C1
330
52
100
AcDbEntity
  8
LAYER0014
 62
     2
100
AcDbBlockReference
  2
_OPEN30
 10
-382.4108273501857
 20
-22.94223044297773
 30
0.0
 41
6.117281464870029
 42
4.025550470965561
 50
360.0
  0
LINE
  5
C2
330
52
100
AcDbEntity
  8
LAYER0014
 62
     2
100
AcDbLine
 10
-382.4108273501857
 20
-22.94223044297773
 30
0.0
 11
-182.410827350185
 21
-22.94223044297773
 31
0.0
  0
INSERT
  5
C3
330
52
100
AcDbEntity
  8
LAYER0014
 62
     2
100
AcDbBlockReference
  2
_OPEN30
 10
-382.4108273501857
 20
-22.94223044297773
 30
0.0
 41
6.117281464870029
 42
4.025550470965561
 50
180.0
  0
INSERT
  5
C4
330
52
100
AcDbEntity
  8
LAYER0014
 62
     2
100
AcDbBlockReference
  2
_OPEN30
 10
-182.410827350185
 20
-22.94223044297773
 30
0.0
 41
6.117281464870029
 42
4.025550470965561
 50
360.0
  0
LINE
  5
C5
330
52
100
AcDbEntity
  8
LAYER0014
 62
     2
100
AcDbLine
 10
-182.410827350185
 20
-22.94223044297773
 30
0.0
 11
197.5891726498157
 21
-22.94223044297773
 31
0.0
  0
INSERT
  5
C6
330
52
100
AcDbEntity
  8
LAYER0014
 62
     2
100
AcDbBlockReference
  2
_OPEN30
 10
-182.410827350185
 20
-22.94223044297773
 30
0.0
 41
6.117281464870029
 42
4.025550470965561
 50
180.0
  0
INSERT
  5
C7
330
52
100
AcDbEntity
  8
LAYER0014
 62
     2
100
AcDbBlockReference
  2
_OPEN30
 10
197.5891726498157
 20
-22.94223044297773
 30
0.0
 41
6.117281464870029
 42
4.025550470965561
 50
360.0
  0
LINE
  5
C8
330
52
100
AcDbEntity
  8
LAYER0014
 62
     2
100
AcDbLine
 10
197.5891726498157
 20
-22.94223044297773
 30
0.0
 11
268.5891726498195
 21
-22.94223044297773
 31
0.0
  0
INSERT
  5
C9
330
52
100
AcDbEntity
  8
LAYER0014
 62
     2
100
AcDbBlockReference
  2
_OPEN30
 10
197.5891726498157
 20
-22.94223044297773
 30
0.0
 41
6.117281464870029
 42
4.025550470965561
 50
180.0
  0
INSERT
  5
CA
330
52
100
AcDbEntity
  8
LAYER0014
 62
     2
100
AcDbBlockReference
  2
_OPEN30
 10
268.5891726498195
 20
-22.94223044297773
 30
0.0
 41
6.117281464870029
 42
4.025550470965561
 50
360.0
  0
TEXT
  5
CB
330
52
100
AcDbEntity
  8
LAYER0014
 62
     2
100
AcDbText
 10
-455.5108273501863
 20
-20.94223044297773
 30
0.0
 40
8.0
  1
127
 41
0.8842105263157916
  7
DAVECTORFONT
 72
     5
 11
-436.3108273501863
 21
-20.94223044297773
 31
0.0
100
AcDbText
  0
TEXT
  5
CC
330
52
100
AcDbEntity
  8
LAYER0014
 62
     2
100
AcDbText
 10
-348.4108273501854
 20
-20.94223044297773
 30
0.0
 40
8.0
  1
0～300
 41
0.8842105263157895
  7
DAVECTORFONT
 72
     5
 11
-316.4108273501854
 21
-20.94223044297773
 31
0.0
100
AcDbText
  0
TEXT
  5
CD
330
52
100
AcDbEntity
  8
LAYER0014
 62
     2
100
AcDbText
 10
-102.0108273501847
 20
-20.94223044297773
 30
0.0
 40
8.0
  1
380
 41
0.8842105263157902
  7
DAVECTORFONT
 72
     5
 11
-82.81082735018464
 21
-20.94223044297773
 31
0.0
100
AcDbText
  0
TEXT
  5
CE
330
52
100
AcDbEntity
  8
LAYER0014
 62
     2
100
AcDbText
 10
226.6891726498176
 20
-20.94223044297773
 30
0.0
 40
8.0
  1
71
 41
1.083870967741937
  7
DAVECTORFONT
 72
     5
 11
239.4891726498176
 21
-20.94223044297773
 31
0.0
100
AcDbText
  0
ENDBLK
  5
54
330
52
100
AcDbEntity
  8
0
100
AcDbBlockEnd
  0
BLOCK
  5
56
330
55
100
AcDbEntity
  8
0
100
AcDbBlockBegin
  2
DA_IMAGEDIMGROUP_3
 70
     0
 71
     0
 10
0.0
 20
0.0
 30
0.0
  3
DA_IMAGEDIMGROUP_3
  1

  0
LINE
  5
CF
330
55
100
AcDbEntity
  8
LAYER0014
 62
     2
100
AcDbLine
 10
-313.4108273501884
 20
-211.9422304429776
 30
0.0
 11
-313.4108273501884
 21
-233.4422304429776
 31
0.0
  0
LINE
  5
D0
330
55
100
AcDbEntity
  8
LAYER0014
 62
     2
100
AcDbLine
 10
-295.4108273501884
 20
-211.9422304429776
 30
0.0
 11
-295.4108273501884
 21
-233.4422304429776
 31
0.0
  0
LINE
  5
D1
330
55
100
AcDbEntity
  8
LAYER0014
 62
     2
100
AcDbLine
 10
-313.4108273501884
 20
-231.4422304429776
 30
0.0
 11
-295.4108273501884
 21
-231.4422304429776
 31
0.0
  0
LINE
  5
D2
330
55
100
AcDbEntity
  8
LAYER0014
 62
     2
100
AcDbLine
 10
-349.4444614839057
 20
-231.4422304429776
 30
0.0
 11
-313.4108273501884
 21
-231.4422304429776
 31
0.0
  0
INSERT
  5
D3
330
55
100
AcDbEntity
  8
LAYER0014
 62
     2
100
AcDbBlockReference
  2
_OPEN30
 10
-313.4108273501884
 20
-231.4422304429776
 30
0.0
 41
6.117281464870029
 42
4.025550470965561
 50
360.0
  0
LINE
  5
D4
330
55
100
AcDbEntity
  8
LAYER0014
 62
     2
100
AcDbLine
 10
-286.6608273501884
 20
-231.4422304429776
 30
0.0
 11
-295.4108273501884
 21
-231.4422304429776
 31
0.0
  0
INSERT
  5
D5
330
55
100
AcDbEntity
  8
LAYER0014
 62
     2
100
AcDbBlockReference
  2
_OPEN30
 10
-295.4108273501884
 20
-231.4422304429776
 30
0.0
 41
6.117281464870029
 42
4.025550470965561
 50
180.0
  0
TEXT
  5
D6
330
55
100
AcDbEntity
  8
LAYER0014
 62
     2
100
AcDbText
 10
-346.2444614839057
 20
-229.4422304429776
 30
0.0
 40
8.0
  1
18
 41
0.9081081081081089
  7
DAVECTORFONT
 72
     5
 11
-333.4444614839057
 21
-229.4422304429776
 31
0.0
100
AcDbText
  0
TEXT
  5
D7
330
55
100
AcDbEntity
  8
LAYER0014
 62
     2
100
AcDbText
 10
-332.1944614839057
 20
-229.4422304429776
 30
0.0
 40
8.0
  1
h6
 41
0.9333333333333342
  7
DAVECTORFONT
 72
     5
 11
-319.3944614839057
 21
-229.4422304429776
 31
0.0
100
AcDbText
  0
ENDBLK
  5
57
330
55
100
AcDbEntity
  8
0
100
AcDbBlockEnd
  0
BLOCK
  5
59
330
58
100
AcDbEntity
  8
0
100
AcDbBlockBegin
  2
DA_IMAGEDIMGROUP_4
 70
     0
 71
     0
 10
0.0
 20
0.0
 30
0.0
  3
DA_IMAGEDIMGROUP_4
  1

  0
LINE
  5
D8
330
58
100
AcDbEntity
  8
LAYER0014
 62
     2
100
AcDbLine
 10
-304.4108273501884
 20
-213.9422304429776
 30
0.0
 11
-304.4108273501884
 21
-255.9422304429776
 31
0.0
  0
LINE
  5
D9
330
58
100
AcDbEntity
  8
LAYER0014
 62
     2
100
AcDbLine
 10
-382.4108273501857
 20
-121.9422304429777
 30
0.0
 11
-382.4108273501857
 21
-255.9422304429776
 31
0.0
  0
LINE
  5
DA
330
58
100
AcDbEntity
  8
LAYER0014
 62
     2
100
AcDbLine
 10
-382.4108273501857
 20
-253.9422304429776
 30
0.0
 11
-304.4108273501884
 21
-253.9422304429776
 31
0.0
  0
INSERT
  5
DB
330
58
100
AcDbEntity
  8
LAYER0014
 62
     2
100
AcDbBlockReference
  2
_OPEN30
 10
-382.4108273501857
 20
-253.9422304429776
 30
0.0
 41
6.117281464870029
 42
4.025550470965561
 50
180.0
  0
INSERT
  5
DC
330
58
100
AcDbEntity
  8
LAYER0014
 62
     2
100
AcDbBlockReference
  2
_OPEN30
 10
-304.4108273501884
 20
-253.9422304429776
 30
0.0
 41
6.117281464870029
 42
4.025550470965561
 50
360.0
  0
TEXT
  5
DD
330
58
100
AcDbEntity
  8
LAYER0014
 62
     2
100
AcDbText
 10
-349.8108273501871
 20
-251.9422304429776
 30
0.0
 40
8.0
  1
78
 41
0.9081081081081049
  7
DAVECTORFONT
 72
     5
 11
-337.0108273501871
 21
-251.9422304429776
 31
0.0
100
AcDbText
  0
ENDBLK
  5
5A
330
58
100
AcDbEntity
  8
0
100
AcDbBlockEnd
  0
BLOCK
  5
5C
330
5B
100
AcDbEntity
  8
0
100
AcDbBlockBegin
  2
DA_IMAGEDIMGROUP_5
 70
     0
 71
     0
 10
0.0
 20
0.0
 30
0.0
  3
DA_IMAGEDIMGROUP_5
  1

  0
LINE
  5
DE
330
5B
100
AcDbEntity
  8
LAYER0014
 62
     2
100
AcDbLine
 10
-304.4108273501884
 20
-258.9422304429776
 30
0.0
 11
-304.4108273501884
 21
-278.4422304429776
 31
0.0
  0
LINE
  5
DF
330
5B
100
AcDbEntity
  8
LAYER0014
 62
     2
100
AcDbLine
 10
-509.4108273501869
 20
-203.9422304429776
 30
0.0
 11
-509.4108273501869
 21
-278.4422304429776
 31
0.0
  0
LINE
  5
E0
330
5B
100
AcDbEntity
  8
LAYER0014
 62
     2
100
AcDbLine
 10
-509.4108273501869
 20
-276.4422304429776
 30
0.0
 11
-304.4108273501884
 21
-276.4422304429776
 31
0.0
  0
INSERT
  5
E1
330
5B
100
AcDbEntity
  8
LAYER0014
 62
     2
100
AcDbBlockReference
  2
_OPEN30
 10
-509.4108273501869
 20
-276.4422304429776
 30
0.0
 41
6.117281464870029
 42
4.025550470965561
 50
180.0
  0
INSERT
  5
E2
330
5B
100
AcDbEntity
  8
LAYER0014
 62
     2
100
AcDbBlockReference
  2
_OPEN30
 10
-304.4108273501884
 20
-276.4422304429776
 30
0.0
 41
6.117281464870029
 42
4.025550470965561
 50
360.0
  0
TEXT
  5
E3
330
5B
100
AcDbEntity
  8
LAYER0014
 62
     2
100
AcDbText
 10
-416.5108273501877
 20
-274.4422304429776
 30
0.0
 40
8.0
  1
205
 41
0.8842105263157916
  7
DAVECTORFONT
 72
     5
 11
-397.3108273501877
 21
-274.4422304429776
 31
0.0
100
AcDbText
  0
ENDBLK
  5
5D
330
5B
100
AcDbEntity
  8
0
100
AcDbBlockEnd
  0
BLOCK
  5
5F
330
5E
100
AcDbEntity
  8
0
100
AcDbBlockBegin
  2
DA_IMAGEDIMGROUP_6
 70
     0
 71
     0
 10
0.0
 20
0.0
 30
0.0
  3
DA_IMAGEDIMGROUP_6
  1

  0
LINE
  5
E4
330
5E
100
AcDbEntity
  8
LAYER0014
 62
     2
100
AcDbLine
 10
-509.4108273501869
 20
-281.4422304429776
 30
0.0
 11
-509.4108273501869
 21
-300.9422304429776
 31
0.0
  0
LINE
  5
E5
330
5E
100
AcDbEntity
  8
LAYER0014
 62
     2
100
AcDbLine
 10
-489.4108273501869
 20
-205.9422304429776
 30
0.0
 11
-489.4108273501869
 21
-300.9422304429776
 31
0.0
  0
LINE
  5
E6
330
5E
100
AcDbEntity
  8
LAYER0014
 62
     2
100
AcDbLine
 10
80.58917264981358
 20
-205.9422304429776
 30
0.0
 11
80.58917264981358
 21
-300.9422304429776
 31
0.0
  0
LINE
  5
E7
330
5E
100
AcDbEntity
  8
LAYER0014
 62
     2
100
AcDbLine
 10
100.5891726498136
 20
-203.9422304429776
 30
0.0
 11
100.5891726498136
 21
-300.9422304429776
 31
0.0
  0
LINE
  5
E8
330
5E
100
AcDbEntity
  8
LAYER0014
 62
     2
100
AcDbLine
 10
-509.4108273501869
 20
-298.9422304429776
 30
0.0
 11
-489.4108273501869
 21
-298.9422304429776
 31
0.0
  0
INSERT
  5
E9
330
5E
100
AcDbEntity
  8
LAYER0014
 62
     2
100
AcDbBlockReference
  2
_OPEN30
 10
-509.4108273501869
 20
-298.9422304429776
 30
0.0
 41
6.117281464870029
 42
4.025550470965561
 50
180.0
  0
INSERT
  5
EA
330
5E
100
AcDbEntity
  8
LAYER0014
 62
     2
100
AcDbBlockReference
  2
_OPEN30
 10
-489.4108273501869
 20
-298.9422304429776
 30
0.0
 41
6.117281464870029
 42
4.025550470965561
 50
360.0
  0
LINE
  5
EB
330
5E
100
AcDbEntity
  8
LAYER0014
 62
     2
100
AcDbLine
 10
-489.4108273501869
 20
-298.9422304429776
 30
0.0
 11
80.58917264981358
 21
-298.9422304429776
 31
0.0
  0
INSERT
  5
EC
330
5E
100
AcDbEntity
  8
LAYER0014
 62
     2
100
AcDbBlockReference
  2
_OPEN30
 10
-489.4108273501869
 20
-298.9422304429776
 30
0.0
 41
6.117281464870029
 42
4.025550470965561
 50
180.0
  0
INSERT
  5
ED
330
5E
100
AcDbEntity
  8
LAYER0014
 62
     2
100
AcDbBlockReference
  2
_OPEN30
 10
80.58917264981358
 20
-298.9422304429776
 30
0.0
 41
6.117281464870029
 42
4.025550470965561
 50
360.0
  0
LINE
  5
EE
330
5E
100
AcDbEntity
  8
LAYER0014
 62
     2
100
AcDbLine
 10
80.58917264981358
 20
-298.9422304429776
 30
0.0
 11
100.5891726498136
 21
-298.9422304429776
 31
0.0
  0
INSERT
  5
EF
330
5E
100
AcDbEntity
  8
LAYER0014
 62
     2
100
AcDbBlockReference
  2
_OPEN30
 10
80.58917264981358
 20
-298.9422304429776
 30
0.0
 41
6.117281464870029
 42
4.025550470965561
 50
180.0
  0
INSERT
  5
F0
330
5E
100
AcDbEntity
  8
LAYER0014
 62
     2
100
AcDbBlockReference
  2
_OPEN30
 10
100.5891726498136
 20
-298.9422304429776
 30
0.0
 41
6.117281464870029
 42
4.025550470965561
 50
360.0
  0
TEXT
  5
F1
330
5E
100
AcDbEntity
  8
LAYER0014
 62
     2
100
AcDbText
 10
-505.8108273501869
 20
-296.9422304429776
 30
0.0
 40
8.0
  1
20
 41
0.9081081081081049
  7
DAVECTORFONT
 72
     5
 11
-493.0108273501869
 21
-296.9422304429776
 31
0.0
100
AcDbText
  0
TEXT
  5
F2
330
5E
100
AcDbEntity
  8
LAYER0014
 62
     2
100
AcDbText
 10
-214.0108273501866
 20
-296.9422304429776
 30
0.0
 40
8.0
  1
570
 41
0.8842105263157889
  7
DAVECTORFONT
 72
     5
 11
-194.8108273501867
 21
-296.9422304429776
 31
0.0
100
AcDbText
  0
TEXT
  5
F3
330
5E
100
AcDbEntity
  8
LAYER0014
 62
     2
100
AcDbText
 10
84.18917264981356
 20
-296.9422304429776
 30
0.0
 40
8.0
  1
20
 41
0.9081081081081089
  7
DAVECTORFONT
 72
     5
 11
96.98917264981357
 21
-296.9422304429776
 31
0.0
100
AcDbText
  0
ENDBLK
  5
60
330
5E
100
AcDbEntity
  8
0
100
AcDbBlockEnd
  0
BLOCK
  5
62
330
61
100
AcDbEntity
  8
0
100
AcDbBlockBegin
  2
DA_IMAGEDIMGROUP_7
 70
     0
 71
     0
 10
0.0
 20
0.0
 30
0.0
  3
DA_IMAGEDIMGROUP_7
  1

  0
LINE
  5
F4
330
61
100
AcDbEntity
  8
LAYER0014
 62
     2
100
AcDbLine
 10
-509.4108273501869
 20
-303.9422304429776
 30
0.0
 11
-509.4108273501869
 21
-323.4422304429776
 31
0.0
  0
LINE
  5
F5
330
61
100
AcDbEntity
  8
LAYER0014
 62
     2
100
AcDbLine
 10
100.5891726498136
 20
-303.9422304429776
 30
0.0
 11
100.5891726498136
 21
-323.4422304429776
 31
0.0
  0
LINE
  5
F6
330
61
100
AcDbEntity
  8
LAYER0014
 62
     2
100
AcDbLine
 10
-509.4108273501869
 20
-321.4422304429776
 30
0.0
 11
100.5891726498136
 21
-321.4422304429776
 31
0.0
  0
INSERT
  5
F7
330
61
100
AcDbEntity
  8
LAYER0014
 62
     2
100
AcDbBlockReference
  2
_OPEN30
 10
-509.4108273501869
 20
-321.4422304429776
 30
0.0
 41
6.117281464870029
 42
4.025550470965561
 50
180.0
  0
INSERT
  5
F8
330
61
100
AcDbEntity
  8
LAYER0014
 62
     2
100
AcDbBlockReference
  2
_OPEN30
 10
100.5891726498136
 20
-321.4422304429776
 30
0.0
 41
6.117281464870029
 42
4.025550470965561
 50
360.0
  0
TEXT
  5
F9
330
61
100
AcDbEntity
  8
LAYER0014
 62
     2
100
AcDbText
 10
-214.0108273501866
 20
-319.4422304429776
 30
0.0
 40
8.0
  1
610
 41
0.8842105263157889
  7
DAVECTORFONT
 72
     5
 11
-194.8108273501867
 21
-319.4422304429776
 31
0.0
100
AcDbText
  0
ENDBLK
  5
63
330
61
100
AcDbEntity
  8
0
100
AcDbBlockEnd
  0
BLOCK
  5
65
330
64
100
AcDbEntity
  8
0
100
AcDbBlockBegin
  2
DA_IMAGEDIMGROUP_8
 70
     0
 71
     0
 10
0.0
 20
0.0
 30
0.0
  3
DA_IMAGEDIMGROUP_8
  1

  0
LINE
  5
FA
330
64
100
AcDbEntity
  8
LAYER0014
 62
     2
100
AcDbLine
 10
-509.4108273501869
 20
-326.4422304429776
 30
0.0
 11
-509.4108273501869
 21
-345.9422304429776
 31
0.0
  0
LINE
  5
FB
330
64
100
AcDbEntity
  8
LAYER0014
 62
     2
100
AcDbLine
 10
268.5891726498195
 20
-227.9422304429777
 30
0.0
 11
268.5891726498195
 21
-345.9422304429776
 31
0.0
  0
LINE
  5
FC
330
64
100
AcDbEntity
  8
LAYER0014
 62
     2
100
AcDbLine
 10
-509.4108273501869
 20
-343.9422304429776
 30
0.0
 11
268.5891726498195
 21
-343.9422304429776
 31
0.0
  0
INSERT
  5
FD
330
64
100
AcDbEntity
  8
LAYER0014
 62
     2
100
AcDbBlockReference
  2
_OPEN30
 10
-509.4108273501869
 20
-343.9422304429776
 30
0.0
 41
6.117281464870029
 42
4.025550470965561
 50
180.0
  0
INSERT
  5
FE
330
64
100
AcDbEntity
  8
LAYER0014
 62
     2
100
AcDbBlockReference
  2
_OPEN30
 10
268.5891726498195
 20
-343.9422304429776
 30
0.0
 41
6.117281464870029
 42
4.025550470965561
 50
360.0
  0
TEXT
  5
FF
330
64
100
AcDbEntity
  8
LAYER0014
 62
     2
100
AcDbText
 10
-192.8108273501837
 20
-341.9422304429776
 30
0.0
 40
8.0
  1
MAX:878
 41
0.9116279069767443
  7
DAVECTORFONT
 72
     5
 11
-148.0108273501837
 21
-341.9422304429776
 31
0.0
100
AcDbText
  0
ENDBLK
  5
66
330
64
100
AcDbEntity
  8
0
100
AcDbBlockEnd
  0
BLOCK
  5
68
330
67
100
AcDbEntity
  8
0
100
AcDbBlockBegin
  2
DA_IMAGEDIMGROUP_9
 70
     0
 71
     0
 10
0.0
 20
0.0
 30
0.0
  3
DA_IMAGEDIMGROUP_9
  1

  0
LINE
  5
100
330
67
100
AcDbEntity
  8
LAYER0014
 62
     2
100
AcDbLine
 10
-512.4108273501869
 20
-200.9422304429776
 30
0.0
 11
-533.9108273501869
 21
-200.9422304429776
 31
0.0
  0
LINE
  5
101
330
67
100
AcDbEntity
  8
LAYER0014
 62
     2
100
AcDbLine
 10
-401.4108273501857
 20
-67.94223044297773
 30
0.0
 11
-533.9108273501869
 21
-67.94223044297773
 31
0.0
  0
LINE
  5
102
330
67
100
AcDbEntity
  8
LAYER0014
 62
     2
100
AcDbLine
 10
-531.9108273501869
 20
-200.9422304429776
 30
0.0
 11
-531.9108273501869
 21
-67.94223044297772
 31
0.0
  0
INSERT
  5
103
330
67
100
AcDbEntity
  8
LAYER0014
 62
     2
100
AcDbBlockReference
  2
_OPEN30
 10
-531.9108273501869
 20
-200.9422304429776
 30
0.0
 41
6.117281464870029
 42
4.025550470965561
 50
270.0
  0
INSERT
  5
104
330
67
100
AcDbEntity
  8
LAYER0014
 62
     2
100
AcDbBlockReference
  2
_OPEN30
 10
-531.9108273501869
 20
-67.94223044297773
 30
0.0
 41
6.117281464870029
 42
4.025550470965561
 50
90.0
  0
TEXT
  5
105
330
67
100
AcDbEntity
  8
LAYER0014
 62
     2
100
AcDbText
 10
-533.9108273501869
 20
-144.0422304429777
 30
0.0
 40
8.0
  1
133
 50
90.0
 41
0.8842105263157916
  7
DAVECTORFONT
 72
     5
 11
-533.9108273501869
 21
-124.8422304429776
 31
0.0
100
AcDbText
  0
ENDBLK
  5
69
330
67
100
AcDbEntity
  8
0
100
AcDbBlockEnd
  0
BLOCK
  5
6B
330
6A
100
AcDbEntity
  8
0
100
AcDbBlockBegin
  2
DA_IMAGEDIMGROUP_10
 70
     0
 71
     0
 10
0.0
 20
0.0
 30
0.0
  3
DA_IMAGEDIMGROUP_10
  1

  0
LINE
  5
106
330
6A
100
AcDbEntity
  8
LAYER0014
 62
     2
100
AcDbLine
 10
238.089172649817
 20
121.1586587157016
 30
0.0
 11
238.089172649817
 21
361.1586587157012
 31
0.0
  0
INSERT
  5
107
330
6A
100
AcDbEntity
  8
LAYER0014
 62
     2
100
AcDbBlockReference
  2
_OPEN30
 10
238.089172649817
 20
121.1586587157016
 30
0.0
 41
6.117281464870029
 42
4.025550470965561
 50
270.0
  0
INSERT
  5
108
330
6A
100
AcDbEntity
  8
LAYER0014
 62
     2
100
AcDbBlockReference
  2
_OPEN30
 10
238.089172649817
 20
361.1586587157012
 30
0.0
 41
6.117281464870029
 42
4.025550470965561
 50
90.0
  0
LINE
  5
109
330
6A
100
AcDbEntity
  8
LAYER0014
 62
     2
100
AcDbLine
 10
-151.4108273501938
 20
121.1586587157016
 30
0.0
 11
239.689172649817
 21
121.1586587157016
 31
0.0
  0
LINE
  5
10A
330
6A
100
AcDbEntity
  8
LAYER0014
 62
     2
100
AcDbLine
 10
-151.4108273501906
 20
361.1586587157012
 30
0.0
 11
239.689172649817
 21
361.1586587157012
 31
0.0
  0
TEXT
  5
10B
330
6A
100
AcDbEntity
  8
LAYER0014
 62
     2
100
AcDbText
 10
236.089172649817
 20
231.5586587157014
 30
0.0
 40
8.0
  1
240
 50
90.0
 41
0.8842105263157889
  7
DAVECTORFONT
 72
     5
 11
236.089172649817
 21
250.7586587157014
 31
0.0
100
AcDbText
  0
ENDBLK
  5
6C
330
6A
100
AcDbEntity
  8
0
100
AcDbBlockEnd
  0
BLOCK
  5
6E
330
6D
100
AcDbEntity
  8
0
100
AcDbBlockBegin
  2
DA_IMAGEDIMGROUP_11
 70
     0
 71
     0
 10
0.0
 20
0.0
 30
0.0
  3
DA_IMAGEDIMGROUP_11
  1

  0
LINE
  5
10C
330
6D
100
AcDbEntity
  8
LAYER0014
 62
     2
100
AcDbLine
 10
250.5891726498195
 20
-200.9422304429776
 30
0.0
 11
250.5891726498195
 21
-99.94223044297792
 31
0.0
  0
INSERT
  5
10D
330
6D
100
AcDbEntity
  8
LAYER0014
 62
     2
100
AcDbBlockReference
  2
_OPEN30
 10
250.5891726498195
 20
-200.9422304429776
 30
0.0
 41
6.117281464870029
 42
4.025550470965561
 50
270.0
  0
INSERT
  5
10E
330
6D
100
AcDbEntity
  8
LAYER0014
 62
     2
100
AcDbBlockReference
  2
_OPEN30
 10
250.5891726498195
 20
-99.94223044297792
 30
0.0
 41
6.117281464870029
 42
4.025550470965561
 50
90.0
  0
LINE
  5
10F
330
6D
100
AcDbEntity
  8
LAYER0014
 62
     2
100
AcDbLine
 10
103.5891726498136
 20
-200.9422304429776
 30
0.0
 11
252.1891726498195
 21
-200.9422304429776
 31
0.0
  0
LINE
  5
110
330
6D
100
AcDbEntity
  8
LAYER0014
 62
     2
100
AcDbLine
 10
202.5891726498157
 20
-99.94223044297792
 30
0.0
 11
252.1891726498195
 21
-99.94223044297792
 31
0.0
  0
TEXT
  5
111
330
6D
100
AcDbEntity
  8
LAYER0014
 62
     2
100
AcDbText
 10
248.5891726498195
 20
-160.0422304429778
 30
0.0
 40
8.0
  1
101
 50
90.0
 41
0.988235294117648
  7
DAVECTORFONT
 72
     5
 11
248.5891726498195
 21
-140.8422304429778
 31
0.0
100
AcDbText
  0
ENDBLK
  5
6F
330
6D
100
AcDbEntity
  8
0
100
AcDbBlockEnd
  0
BLOCK
  5
71
330
70
100
AcDbEntity
  8
0
100
AcDbBlockBegin
  2
DA_IMAGEDIMGROUP_12
 70
     0
 71
     0
 10
0.0
 20
0.0
 30
0.0
  3
DA_IMAGEDIMGROUP_12
  1

  0
LINE
  5
112
330
70
100
AcDbEntity
  8
LAYER0014
 62
     2
100
AcDbLine
 10
286.5891726498195
 20
-224.9422304429777
 30
0.0
 11
286.5891726498195
 21
-99.94223044297792
 31
0.0
  0
INSERT
  5
113
330
70
100
AcDbEntity
  8
LAYER0014
 62
     2
100
AcDbBlockReference
  2
_OPEN30
 10
286.5891726498195
 20
-224.9422304429777
 30
0.0
 41
6.117281464870029
 42
4.025550470965561
 50
270.0
  0
INSERT
  5
114
330
70
100
AcDbEntity
  8
LAYER0014
 62
     2
100
AcDbBlockReference
  2
_OPEN30
 10
286.5891726498195
 20
-99.94223044297792
 30
0.0
 41
6.117281464870029
 42
4.025550470965561
 50
90.0
  0
LINE
  5
115
330
70
100
AcDbEntity
  8
LAYER0014
 62
     2
100
AcDbLine
 10
269.5891726498189
 20
-224.9422304429777
 30
0.0
 11
288.1891726498195
 21
-224.9422304429777
 31
0.0
  0
LINE
  5
116
330
70
100
AcDbEntity
  8
LAYER0014
 62
     2
100
AcDbLine
 10
255.1891726498195
 20
-99.94223044297792
 30
0.0
 11
288.1891726498195
 21
-99.94223044297792
 31
0.0
  0
TEXT
  5
117
330
70
100
AcDbEntity
  8
LAYER0014
 62
     2
100
AcDbText
 10
284.9891726498195
 20
-172.0422304429778
 30
0.0
 40
8.0
  1
125
 50
90.0
 41
0.8842105263157916
  7
DAVECTORFONT
 72
     5
 11
284.9891726498195
 21
-152.8422304429778
 31
0.0
100
AcDbText
  0
ENDBLK
  5
72
330
70
100
AcDbEntity
  8
0
100
AcDbBlockEnd
  0
BLOCK
  5
74
330
73
100
AcDbEntity
  8
0
100
AcDbBlockBegin
  2
DA_IMAGEDIMGROUP_13
 70
     0
 71
     0
 10
0.0
 20
0.0
 30
0.0
  3
DA_IMAGEDIMGROUP_13
  1

  0
LINE
  5
118
330
73
100
AcDbEntity
  8
LAYER0014
 62
     2
100
AcDbLine
 10
-531.910827350188
 20
141.1586587157016
 30
0.0
 11
-531.910827350188
 21
341.1586587157012
 31
0.0
  0
INSERT
  5
119
330
73
100
AcDbEntity
  8
LAYER0014
 62
     2
100
AcDbBlockReference
  2
_OPEN30
 10
-531.910827350188
 20
141.1586587157016
 30
0.0
 41
6.117281464870029
 42
4.025550470965561
 50
270.0
  0
INSERT
  5
11A
330
73
100
AcDbEntity
  8
LAYER0014
 62
     2
100
AcDbBlockReference
  2
_OPEN30
 10
-531.910827350188
 20
341.1586587157012
 30
0.0
 41
6.117281464870029
 42
4.025550470965561
 50
90.0
  0
LINE
  5
11B
330
73
100
AcDbEntity
  8
LAYER0014
 62
     2
100
AcDbLine
 10
-318.9108273501896
 20
141.1586587157016
 30
0.0
 11
-533.510827350188
 21
141.1586587157016
 31
0.0
  0
LINE
  5
11C
330
73
100
AcDbEntity
  8
LAYER0014
 62
     2
100
AcDbLine
 10
-318.9108273501896
 20
341.1586587157012
 30
0.0
 11
-533.510827350188
 21
341.1586587157012
 31
0.0
  0
TEXT
  5
11D
330
73
100
AcDbEntity
  8
LAYER0014
 62
     2
100
AcDbText
 10
-533.910827350188
 20
231.5586587157014
 30
0.0
 40
8.0
  1
200
 50
90.0
 41
0.8842105263157916
  7
DAVECTORFONT
 72
     5
 11
-533.910827350188
 21
250.7586587157014
 31
0.0
100
AcDbText
  0
ENDBLK
  5
75
330
73
100
AcDbEntity
  8
0
100
AcDbBlockEnd
  0
BLOCK
  5
77
330
76
100
AcDbEntity
  8
0
100
AcDbBlockBegin
  2
DA_IMAGEDIMGROUP_14
 70
     0
 71
     0
 10
0.0
 20
0.0
 30
0.0
  3
DA_IMAGEDIMGROUP_14
  1

  0
LINE
  5
11E
330
76
100
AcDbEntity
  8
LAYER0014
 62
     2
100
AcDbLine
 10
-204.9108273501838
 20
183.1586587157015
 30
0.0
 11
-204.9108273501838
 21
299.1586587157013
 31
0.0
  0
INSERT
  5
11F
330
76
100
AcDbEntity
  8
LAYER0014
 62
     2
100
AcDbBlockReference
  2
_OPEN30
 10
-204.9108273501838
 20
183.1586587157015
 30
0.0
 41
6.117281464870029
 42
4.025550470965561
 50
270.0
  0
INSERT
  5
120
330
76
100
AcDbEntity
  8
LAYER0014
 62
     2
100
AcDbBlockReference
  2
_OPEN30
 10
-204.9108273501838
 20
299.1586587157013
 30
0.0
 41
6.117281464870029
 42
4.025550470965561
 50
90.0
  0
TEXT
  5
121
330
76
100
AcDbEntity
  8
LAYER0014
 62
     2
100
AcDbText
 10
-206.9108273501838
 20
231.5586587157015
 30
0.0
 40
8.0
  1
116
 50
90.0
 41
0.8842105263157889
  7
DAVECTORFONT
 72
     5
 11
-206.9108273501838
 21
250.7586587157014
 31
0.0
100
AcDbText
  0
ENDBLK
  5
78
330
76
100
AcDbEntity
  8
0
100
AcDbBlockEnd
  0
BLOCK
  5
7A
330
79
100
AcDbEntity
  8
0
100
AcDbBlockBegin
  2
DA_IMAGEDIMGROUP_15
 70
     0
 71
     0
 10
0.0
 20
0.0
 30
0.0
  3
DA_IMAGEDIMGROUP_15
  1

  0
LINE
  5
122
330
79
100
AcDbEntity
  8
LAYER0014
 62
     2
100
AcDbLine
 10
-304.4108273501896
 20
118.1586587157017
 30
0.0
 11
-304.4108273501896
 21
78.65865871570165
 31
0.0
  0
LINE
  5
123
330
79
100
AcDbEntity
  8
LAYER0014
 62
     2
100
AcDbLine
 10
-204.4108273501885
 20
126.6586587157016
 30
0.0
 11
-204.4108273501885
 21
78.65865871570165
 31
0.0
  0
LINE
  5
124
330
79
100
AcDbEntity
  8
LAYER0014
 62
     2
100
AcDbLine
 10
-139.4108273501886
 20
126.6586587157016
 30
0.0
 11
-139.4108273501886
 21
78.65865871570165
 31
0.0
  0
LINE
  5
125
330
79
100
AcDbEntity
  8
LAYER0014
 62
     2
100
AcDbLine
 10
-304.4108273501896
 20
80.65865871570165
 30
0.0
 11
-204.4108273501885
 21
80.65865871570165
 31
0.0
  0
INSERT
  5
126
330
79
100
AcDbEntity
  8
LAYER0014
 62
     2
100
AcDbBlockReference
  2
_OPEN30
 10
-304.4108273501896
 20
80.65865871570165
 30
0.0
 41
6.117281464870029
 42
4.025550470965561
 50
180.0
  0
INSERT
  5
127
330
79
100
AcDbEntity
  8
LAYER0014
 62
     2
100
AcDbBlockReference
  2
_OPEN30
 10
-204.4108273501885
 20
80.65865871570165
 30
0.0
 41
6.117281464870029
 42
4.025550470965561
 50
360.0
  0
LINE
  5
128
330
79
100
AcDbEntity
  8
LAYER0014
 62
     2
100
AcDbLine
 10
-204.4108273501885
 20
80.65865871570165
 30
0.0
 11
-139.4108273501886
 21
80.65865871570165
 31
0.0
  0
INSERT
  5
129
330
79
100
AcDbEntity
  8
LAYER0014
 62
     2
100
AcDbBlockReference
  2
_OPEN30
 10
-204.4108273501885
 20
80.65865871570165
 30
0.0
 41
6.117281464870029
 42
4.025550470965561
 50
180.0
  0
INSERT
  5
12A
330
79
100
AcDbEntity
  8
LAYER0014
 62
     2
100
AcDbBlockReference
  2
_OPEN30
 10
-139.4108273501886
 20
80.65865871570165
 30
0.0
 41
6.117281464870029
 42
4.025550470965561
 50
360.0
  0
TEXT
  5
12B
330
79
100
AcDbEntity
  8
LAYER0014
 62
     2
100
AcDbText
 10
-264.0108273501891
 20
82.65865871570165
 30
0.0
 40
8.0
  1
100
 41
0.8842105263157902
  7
DAVECTORFONT
 72
     5
 11
-244.810827350189
 21
82.65865871570165
 31
0.0
100
AcDbText
  0
TEXT
  5
12C
330
79
100
AcDbEntity
  8
LAYER0014
 62
     2
100
AcDbText
 10
-178.3108273501886
 20
82.65865871570165
 30
0.0
 40
8.0
  1
65
 41
0.9081081081081089
  7
DAVECTORFONT
 72
     5
 11
-165.5108273501886
 21
82.65865871570165
 31
0.0
100
AcDbText
  0
ENDBLK
  5
7B
330
79
100
AcDbEntity
  8
0
100
AcDbBlockEnd
  0
BLOCK
  5
7D
330
7C
100
AcDbEntity
  8
0
100
AcDbBlockBegin
  2
DA_IMAGEDIMGROUP_16
 70
     0
 71
     0
 10
0.0
 20
0.0
 30
0.0
  3
DA_IMAGEDIMGROUP_16
  1

  0
LINE
  5
12D
330
7C
100
AcDbEntity
  8
LAYER0014
 62
     2
100
AcDbLine
 10
-509.410827350188
 20
175.6586587157015
 30
0.0
 11
-509.410827350188
 21
56.15865871570165
 31
0.0
  0
LINE
  5
12E
330
7C
100
AcDbEntity
  8
LAYER0014
 62
     2
100
AcDbLine
 10
197.5891726498169
 20
229.6586587157017
 30
0.0
 11
197.5891726498169
 21
56.15865871570165
 31
0.0
  0
LINE
  5
12F
330
7C
100
AcDbEntity
  8
LAYER0014
 62
     2
100
AcDbLine
 10
-509.410827350188
 20
58.15865871570165
 30
0.0
 11
197.589172649817
 21
58.15865871570165
 31
0.0
  0
INSERT
  5
130
330
7C
100
AcDbEntity
  8
LAYER0014
 62
     2
100
AcDbBlockReference
  2
_OPEN30
 10
-509.410827350188
 20
58.15865871570165
 30
0.0
 41
6.117281464870029
 42
4.025550470965561
 50
180.0
  0
INSERT
  5
131
330
7C
100
AcDbEntity
  8
LAYER0014
 62
     2
100
AcDbBlockReference
  2
_OPEN30
 10
197.5891726498169
 20
58.15865871570165
 30
0.0
 41
6.117281464870029
 42
4.025550470965561
 50
360.0
  0
TEXT
  5
132
330
7C
100
AcDbEntity
  8
LAYER0014
 62
     2
100
AcDbText
 10
-228.3108273501855
 20
60.15865871570165
 30
0.0
 40
8.0
  1
MAX:807
 41
0.9116279069767443
  7
DAVECTORFONT
 72
     5
 11
-183.5108273501855
 21
60.15865871570165
 31
0.0
100
AcDbText
  0
ENDBLK
  5
7E
330
7C
100
AcDbEntity
  8
0
100
AcDbBlockEnd
  0
BLOCK
  5
80
330
7F
100
AcDbEntity
  8
0
100
AcDbBlockBegin
  2
DA_IMAGEDIMGROUP_17
 70
     0
 71
     0
 10
0.0
 20
0.0
 30
0.0
  3
DA_IMAGEDIMGROUP_17
  1

  0
LINE
  5
133
330
7F
100
AcDbEntity
  8
LAYER0014
 62
     2
100
AcDbLine
 10
-264.0076532296179
 20
-208.9422304429776
 30
0.0
 11
-264.0076532296179
 21
-200.9422304429776
 31
0.0
  0
LINE
  5
134
330
7F
100
AcDbEntity
  8
LAYER0014
 62
     2
100
AcDbLine
 10
-292.4108273501884
 20
-208.9422304429776
 30
0.0
 11
-262.0076532296179
 21
-208.9422304429776
 31
0.0
  0
LINE
  5
135
330
7F
100
AcDbEntity
  8
LAYER0014
 62
     2
100
AcDbLine
 10
-379.4108273501857
 20
-67.94223044297773
 30
0.0
 11
-262.0076532296179
 21
-67.94223044297772
 31
0.0
  0
LINE
  5
136
330
7F
100
AcDbEntity
  8
LAYER0014
 62
     2
100
AcDbLine
 10
-264.0076532296179
 20
-224.3282804429776
 30
0.0
 11
-264.0076532296179
 21
-208.9422304429776
 31
0.0
  0
INSERT
  5
137
330
7F
100
AcDbEntity
  8
LAYER0014
 62
     2
100
AcDbBlockReference
  2
_OPEN30
 10
-264.0076532296179
 20
-208.9422304429776
 30
0.0
 41
6.117281464870029
 42
4.025550470965561
 50
90.0
  0
LINE
  5
138
330
7F
100
AcDbEntity
  8
LAYER0014
 62
     2
100
AcDbLine
 10
-264.0076532296179
 20
-200.9422304429776
 30
0.0
 11
-264.0076532296179
 21
-118.9422304429777
 31
0.0
  0
INSERT
  5
139
330
7F
100
AcDbEntity
  8
LAYER0014
 62
     2
100
AcDbBlockReference
  2
_OPEN30
 10
-264.0076532296179
 20
-200.9422304429776
 30
0.0
 41
6.117281464870029
 42
4.025550470965561
 50
270.0
  0
INSERT
  5
13A
330
7F
100
AcDbEntity
  8
LAYER0014
 62
     2
100
AcDbBlockReference
  2
_OPEN30
 10
-264.0076532296179
 20
-118.9422304429777
 30
0.0
 41
6.117281464870029
 42
4.025550470965561
 50
90.0
  0
LINE
  5
13B
330
7F
100
AcDbEntity
  8
LAYER0014
 62
     2
100
AcDbLine
 10
-264.0076532296179
 20
-118.9422304429777
 30
0.0
 11
-264.0076532296179
 21
-67.94223044297772
 31
0.0
  0
INSERT
  5
13C
330
7F
100
AcDbEntity
  8
LAYER0014
 62
     2
100
AcDbBlockReference
  2
_OPEN30
 10
-264.0076532296179
 20
-118.9422304429777
 30
0.0
 41
6.117281464870029
 42
4.025550470965561
 50
270.0
  0
INSERT
  5
13D
330
7F
100
AcDbEntity
  8
LAYER0014
 62
     2
100
AcDbBlockReference
  2
_OPEN30
 10
-264.0076532296179
 20
-67.94223044297772
 30
0.0
 41
6.117281464870029
 42
4.025550470965561
 50
90.0
  0
TEXT
  5
13E
330
7F
100
AcDbEntity
  8
LAYER0014
 62
     2
100
AcDbText
 10
-266.0076532296179
 20
-222.7282804429775
 30
0.0
 40
8.0
  1
8
 50
90.0
 41
0.9882352941176436
  7
DAVECTORFONT
 72
     5
 11
-266.0076532296179
 21
-216.3282804429776
 31
0.0
100
AcDbText
  0
TEXT
  5
13F
330
7F
100
AcDbEntity
  8
LAYER0014
 62
     2
100
AcDbText
 10
-266.0076532296179
 20
-172.0493807367614
 30
0.0
 40
8.0
  1
82
 50
90.0
 41
0.9081081081081049
  7
DAVECTORFONT
 72
     5
 11
-266.0076532296179
 21
-159.2493807367615
 31
0.0
100
AcDbText
  0
TEXT
  5
140
330
7F
100
AcDbEntity
  8
LAYER0014
 62
     2
100
AcDbText
 10
-266.0076532296179
 20
-99.84223044297765
 30
0.0
 40
8.0
  1
51
 50
90.0
 41
1.083870967741932
  7
DAVECTORFONT
 72
     5
 11
-266.0076532296179
 21
-87.0422304429777
 31
0.0
100
AcDbText
  0
ENDBLK
  5
81
330
7F
100
AcDbEntity
  8
0
100
AcDbBlockEnd
  0
BLOCK
  5
83
330
82
100
AcDbEntity
  8
0
100
AcDbBlockBegin
  2
DA_IMAGEDIMGROUP_18
 70
     0
 71
     0
 10
0.0
 20
0.0
 30
0.0
  3
DA_IMAGEDIMGROUP_18
  1

  0
LINE
  5
141
330
82
100
AcDbEntity
  8
LAYER0014
 62
     2
100
AcDbLine
 10
-346.7226694782733
 20
164.1586587157015
 30
0.0
 11
-346.7226694782733
 21
318.1586587157012
 31
0.0
  0
INSERT
  5
142
330
82
100
AcDbEntity
  8
LAYER0014
 62
     2
100
AcDbBlockReference
  2
_OPEN30
 10
-346.7226694782733
 20
164.1586587157015
 30
0.0
 41
6.117281464870029
 42
4.025550470965561
 50
270.0
  0
INSERT
  5
143
330
82
100
AcDbEntity
  8
LAYER0014
 62
     2
100
AcDbBlockReference
  2
_OPEN30
 10
-346.7226694782733
 20
318.1586587157012
 30
0.0
 41
6.117281464870029
 42
4.025550470965561
 50
90.0
  0
LINE
  5
144
330
82
100
AcDbEntity
  8
LAYER0014
 62
     2
100
AcDbLine
 10
-380.0108273501845
 20
164.1586587157015
 30
0.0
 11
-345.1226694782733
 21
164.1586587157015
 31
0.0
  0
LINE
  5
145
330
82
100
AcDbEntity
  8
LAYER0014
 62
     2
100
AcDbLine
 10
-380.0108273501845
 20
318.1586587157012
 30
0.0
 11
-345.1226694782733
 21
318.1586587157012
 31
0.0
  0
TEXT
  5
146
330
82
100
AcDbEntity
  8
LAYER0014
 62
     2
100
AcDbText
 10
-348.3226694782733
 20
231.5586587157014
 30
0.0
 40
8.0
  1
154
 50
90.0
 41
0.8689655172413814
  7
DAVECTORFONT
 72
     5
 11
-348.3226694782733
 21
250.7586587157014
 31
0.0
100
AcDbText
  0
ENDBLK
  5
84
330
82
100
AcDbEntity
  8
0
100
AcDbBlockEnd
  0
BLOCK
  5
86
330
85
100
AcDbEntity
  8
0
100
AcDbBlockBegin
  2
DA_IMAGEDIMGROUP_19
 70
     0
 71
     0
 10
0.0
 20
0.0
 30
0.0
  3
DA_IMAGEDIMGROUP_19
  1

  0
LINE
  5
147
330
85
100
AcDbEntity
  8
LAYER0014
 62
     2
100
AcDbLine
 10
77.98917264981233
 20
153.6586587157016
 30
0.0
 11
221.689172649817
 21
153.6586587157016
 31
0.0
  0
LINE
  5
148
330
85
100
AcDbEntity
  8
LAYER0014
 62
     2
100
AcDbLine
 10
77.98917264981233
 20
328.6586587157012
 30
0.0
 11
221.689172649817
 21
328.6586587157012
 31
0.0
  0
LINE
  5
149
330
85
100
AcDbEntity
  8
LAYER0014
 62
     2
100
AcDbLine
 10
220.089172649817
 20
153.6586587157016
 30
0.0
 11
220.089172649817
 21
328.6586587157012
 31
0.0
  0
INSERT
  5
14A
330
85
100
AcDbEntity
  8
LAYER0014
 62
     2
100
AcDbBlockReference
  2
_OPEN30
 10
220.089172649817
 20
153.6586587157016
 30
0.0
 41
6.117281464870029
 42
4.025550470965561
 50
270.0
  0
INSERT
  5
14B
330
85
100
AcDbEntity
  8
LAYER0014
 62
     2
100
AcDbBlockReference
  2
_OPEN30
 10
220.089172649817
 20
328.6586587157012
 30
0.0
 41
6.117281464870029
 42
4.025550470965561
 50
90.0
  0
TEXT
  5
14C
330
85
100
AcDbEntity
  8
LAYER0014
 62
     2
100
AcDbText
 10
218.489172649817
 20
231.5586587157014
 30
0.0
 40
8.0
  1
175
 50
90.0
 41
0.8842105263157889
  7
DAVECTORFONT
 72
     5
 11
218.489172649817
 21
250.7586587157014
 31
0.0
100
AcDbText
  0
ENDBLK
  5
87
330
85
100
AcDbEntity
  8
0
100
AcDbBlockEnd
  0
BLOCK
  5
89
330
88
100
AcDbEntity
  8
0
100
AcDbBlockBegin
  2
DA_IMAGEDIMGROUP_20
 70
     0
 71
     0
 10
0.0
 20
0.0
 30
0.0
  3
DA_IMAGEDIMGROUP_20
  1

  0
LINE
  5
14D
330
88
100
AcDbEntity
  8
LAYER0014
 62
     2
100
AcDbLine
 10
-294.9108273501896
 20
118.7586587157016
 30
0.0
 11
-294.9108273501896
 21
101.5586587157016
 31
0.0
  0
LINE
  5
14E
330
88
100
AcDbEntity
  8
LAYER0014
 62
     2
100
AcDbLine
 10
-313.9108273501896
 20
119.0813520406373
 30
0.0
 11
-313.9108273501896
 21
101.5586587157016
 31
0.0
  0
LINE
  5
14F
330
88
100
AcDbEntity
  8
LAYER0014
 62
     2
100
AcDbLine
 10
-313.9108273501896
 20
103.1586587157016
 30
0.0
 11
-294.9108273501896
 21
103.1586587157016
 31
0.0
  0
LINE
  5
150
330
88
100
AcDbEntity
  8
LAYER0014
 62
     2
100
AcDbLine
 10
-276.2019873501896
 20
103.1586587157016
 30
0.0
 11
-294.9108273501896
 21
103.1586587157016
 31
0.0
  0
INSERT
  5
151
330
88
100
AcDbEntity
  8
LAYER0014
 62
     2
100
AcDbBlockReference
  2
_OPEN30
 10
-294.9108273501896
 20
103.1586587157016
 30
0.0
 41
6.117281464870029
 42
4.025550470965561
 50
180.0
  0
LINE
  5
152
330
88
100
AcDbEntity
  8
LAYER0014
 62
     2
100
AcDbLine
 10
-320.9108273501896
 20
103.1586587157016
 30
0.0
 11
-313.9108273501896
 21
103.1586587157016
 31
0.0
  0
INSERT
  5
153
330
88
100
AcDbEntity
  8
LAYER0014
 62
     2
100
AcDbBlockReference
  2
_OPEN30
 10
-313.9108273501896
 20
103.1586587157016
 30
0.0
 41
6.117281464870029
 42
4.025550470965561
 50
360.0
  0
TEXT
  5
154
330
88
100
AcDbEntity
  8
LAYER0014
 62
     2
100
AcDbText
 10
-289.0019873501896
 20
104.7586587157016
 30
0.0
 40
8.0
  1
19
 41
0.9333333333333342
  7
DAVECTORFONT
 72
     5
 11
-276.2019873501896
 21
104.7586587157016
 31
0.0
100
AcDbText
  0
ENDBLK
  5
8A
330
88
100
AcDbEntity
  8
0
100
AcDbBlockEnd
  0
BLOCK
  5
8C
330
8B
100
AcDbEntity
  8
0
100
AcDbBlockBegin
  2
DA_IMAGEDIMGROUP_21
 70
     0
 71
     0
 10
0.0
 20
0.0
 30
0.0
  3
DA_IMAGEDIMGROUP_21
  1

  0
LINE
  5
155
330
8B
100
AcDbEntity
  8
LAYER0014
 62
     2
100
AcDbLine
 10
334.2249147563531
 20
-244.9422304429775
 30
0.0
 11
509.2249147563517
 21
-244.9422304429775
 31
0.0
  0
INSERT
  5
156
330
8B
100
AcDbEntity
  8
LAYER0014
 62
     2
100
AcDbBlockReference
  2
_OPEN30
 10
334.2249147563531
 20
-244.9422304429775
 30
0.0
 41
6.117281464870029
 42
4.025550470965561
 50
180.0
  0
INSERT
  5
157
330
8B
100
AcDbEntity
  8
LAYER0014
 62
     2
100
AcDbBlockReference
  2
_OPEN30
 10
509.2249147563517
 20
-244.9422304429775
 30
0.0
 41
6.117281464870029
 42
4.025550470965561
 50
360.0
  0
LINE
  5
158
330
8B
100
AcDbEntity
  8
LAYER0014
 62
     2
100
AcDbLine
 10
334.2249147563531
 20
-211.3422304429776
 30
0.0
 11
334.2249147563531
 21
-246.5422304429775
 31
0.0
  0
LINE
  5
159
330
8B
100
AcDbEntity
  8
LAYER0014
 62
     2
100
AcDbLine
 10
509.2249147563517
 20
-211.3422304429774
 30
0.0
 11
509.2249147563517
 21
-246.5422304429775
 31
0.0
  0
TEXT
  5
15A
330
8B
100
AcDbEntity
  8
LAYER0014
 62
     2
100
AcDbText
 10
412.1249147563524
 20
-243.3422304429775
 30
0.0
 40
8.0
  1
175
 41
0.8842105263157916
  7
DAVECTORFONT
 72
     5
 11
431.3249147563524
 21
-243.3422304429775
 31
0.0
100
AcDbText
  0
ENDBLK
  5
8D
330
8B
100
AcDbEntity
  8
0
100
AcDbBlockEnd
  0
BLOCK
  5
8F
330
8E
100
AcDbEntity
  8
0
100
AcDbBlockBegin
  2
GROUP_1
 70
     0
 71
     0
 10
0.0
 20
0.0
 30
0.0
  3
GROUP_1
  1

  0
LINE
  5
15B
330
8E
100
AcDbEntity
  8
0
  6
CENTER
 62
     2
100
AcDbLine
 10
479.2649147563521
 20
-99.94223044297782
 30
0.0
 11
464.1849147563522
 21
-99.94223044297782
 31
0.0
  0
LINE
  5
15C
330
8E
100
AcDbEntity
  8
0
  6
CENTER
 62
     2
100
AcDbLine
 10
471.7249147563521
 20
-92.40223044297785
 30
0.0
 11
471.7249147563521
 21
-107.4822304429778
 31
0.0
  0
ENDBLK
  5
90
330
8E
100
AcDbEntity
  8
0
100
AcDbBlockEnd
  0
BLOCK
  5
92
330
91
100
AcDbEntity
  8
0
100
AcDbBlockBegin
  2
GROUP_2
 70
     0
 71
     0
 10
0.0
 20
0.0
 30
0.0
  3
GROUP_2
  1

  0
LINE
  5
15D
330
91
100
AcDbEntity
  8
0
  6
CENTER
 62
     2
100
AcDbLine
 10
379.2649147563524
 20
-99.94223044297804
 30
0.0
 11
364.1849147563524
 21
-99.94223044297804
 31
0.0
  0
LINE
  5
15E
330
91
100
AcDbEntity
  8
0
  6
CENTER
 62
     2
100
AcDbLine
 10
371.7249147563524
 20
-92.40223044297808
 30
0.0
 11
371.7249147563524
 21
-107.482230442978
 31
0.0
  0
ENDBLK
  5
93
330
91
100
AcDbEntity
  8
0
100
AcDbBlockEnd
  0
BLOCK
  5
95
330
94
100
AcDbEntity
  8
0
100
AcDbBlockBegin
  2
GROUP_3
 70
     0
 71
     0
 10
0.0
 20
0.0
 30
0.0
  3
GROUP_3
  1

  0
LINE
  5
15F
330
94
100
AcDbEntity
  8
0
  6
CENTER
 62
     7
100
AcDbLine
 10
301.1097988021556
 20
326.7442443179712
 30
0.0
 11
266.3097988021556
 21
326.7442443179712
 31
0.0
  0
LINE
  5
160
330
94
100
AcDbEntity
  8
0
  6
CENTER
 62
     2
100
AcDbLine
 10
283.7097988021556
 20
344.1442443179711
 30
0.0
 11
283.7097988021556
 21
309.3442443179712
 31
0.0
  0
ENDBLK
  5
96
330
94
100
AcDbEntity
  8
0
100
AcDbBlockEnd
  0
BLOCK
  5
98
330
97
100
AcDbEntity
  8
0
100
AcDbBlockBegin
  2
DA_IMAGEDIMGROUP_22
 70
     0
 71
     0
 10
0.0
 20
0.0
 30
0.0
  3
DA_IMAGEDIMGROUP_22
  1

  0
LINE
  5
161
330
97
100
AcDbEntity
  8
LAYER0014
 62
     2
100
AcDbLine
 10
323.7097988021557
 20
308.7442443179712
 30
0.0
 11
323.7097988021557
 21
287.2442443179712
 31
0.0
  0
LINE
  5
162
330
97
100
AcDbEntity
  8
LAYER0014
 62
     2
100
AcDbLine
 10
343.7097988021557
 20
312.7443688972301
 30
0.0
 11
343.7097988021557
 21
287.2442443179712
 31
0.0
  0
LINE
  5
163
330
97
100
AcDbEntity
  8
LAYER0014
 62
     2
100
AcDbLine
 10
323.7097988021557
 20
289.2442443179712
 30
0.0
 11
343.7097988021557
 21
289.2442443179712
 31
0.0
  0
LINE
  5
164
330
97
100
AcDbEntity
  8
LAYER0014
 62
     2
100
AcDbLine
 10
352.4597988021557
 20
289.2442443179712
 30
0.0
 11
343.7097988021557
 21
289.2442443179712
 31
0.0
  0
INSERT
  5
165
330
97
100
AcDbEntity
  8
LAYER0014
 62
     2
100
AcDbBlockReference
  2
_OPEN30
 10
343.7097988021557
 20
289.2442443179712
 30
0.0
 41
6.117281464870029
 42
4.025550470965561
 50
180.0
  0
LINE
  5
166
330
97
100
AcDbEntity
  8
LAYER0014
 62
     2
100
AcDbLine
 10
314.9597988021557
 20
289.2442443179712
 30
0.0
 11
323.7097988021557
 21
289.2442443179712
 31
0.0
  0
INSERT
  5
167
330
97
100
AcDbEntity
  8
LAYER0014
 62
     2
100
AcDbBlockReference
  2
_OPEN30
 10
323.7097988021557
 20
289.2442443179712
 30
0.0
 41
6.117281464870029
 42
4.025550470965561
 50
360.0
  0
TEXT
  5
168
330
97
100
AcDbEntity
  8
LAYER0014
 62
     2
100
AcDbText
 10
327.3097988021557
 20
291.2442443179712
 30
0.0
 40
8.0
  1
20
 41
0.9081081081081049
  7
DAVECTORFONT
 72
     5
 11
340.1097988021556
 21
291.2442443179712
 31
0.0
100
AcDbText
  0
ENDBLK
  5
99
330
97
100
AcDbEntity
  8
0
100
AcDbBlockEnd
  0
BLOCK
  5
9B
330
9A
100
AcDbEntity
  8
0
100
AcDbBlockBegin
  2
DA_IMAGEDIMGROUP_23
 70
     0
 71
     0
 10
0.0
 20
0.0
 30
0.0
  3
DA_IMAGEDIMGROUP_23
  1

  0
LINE
  5
169
330
9A
100
AcDbEntity
  8
LAYER0014
 62
     2
100
AcDbLine
 10
508.7097988021558
 20
313.2442443179712
 30
0.0
 11
508.7097988021558
 21
287.2442443179712
 31
0.0
  0
LINE
  5
16A
330
9A
100
AcDbEntity
  8
LAYER0014
 62
     2
100
AcDbLine
 10
533.7097988021557
 20
314.7442443179712
 30
0.0
 11
533.7097988021557
 21
287.2442443179712
 31
0.0
  0
LINE
  5
16B
330
9A
100
AcDbEntity
  8
LAYER0014
 62
     2
100
AcDbLine
 10
508.7097988021558
 20
289.2442443179712
 30
0.0
 11
533.7097988021557
 21
289.2442443179712
 31
0.0
  0
LINE
  5
16C
330
9A
100
AcDbEntity
  8
LAYER0014
 62
     2
100
AcDbLine
 10
542.4597988021557
 20
289.2442443179712
 30
0.0
 11
533.7097988021557
 21
289.2442443179712
 31
0.0
  0
INSERT
  5
16D
330
9A
100
AcDbEntity
  8
LAYER0014
 62
     2
100
AcDbBlockReference
  2
_OPEN30
 10
533.7097988021557
 20
289.2442443179712
 30
0.0
 41
6.117281464870029
 42
4.025550470965561
 50
180.0
  0
LINE
  5
16E
330
9A
100
AcDbEntity
  8
LAYER0014
 62
     2
100
AcDbLine
 10
499.9597988021558
 20
289.2442443179712
 30
0.0
 11
508.7097988021558
 21
289.2442443179712
 31
0.0
  0
INSERT
  5
16F
330
9A
100
AcDbEntity
  8
LAYER0014
 62
     2
100
AcDbBlockReference
  2
_OPEN30
 10
508.7097988021558
 20
289.2442443179712
 30
0.0
 41
6.117281464870029
 42
4.025550470965561
 50
360.0
  0
TEXT
  5
170
330
9A
100
AcDbEntity
  8
LAYER0014
 62
     2
100
AcDbText
 10
514.8097988021557
 20
291.2442443179712
 30
0.0
 40
8.0
  1
25
 41
0.9081081081081049
  7
DAVECTORFONT
 72
     5
 11
527.6097988021556
 21
291.2442443179712
 31
0.0
100
AcDbText
  0
ENDBLK
  5
9C
330
9A
100
AcDbEntity
  8
0
100
AcDbBlockEnd
  0
BLOCK
  5
9E
330
9D
100
AcDbEntity
  8
0
100
AcDbBlockBegin
  2
DA_IMAGEDIMGROUP_24
 70
     0
 71
     0
 10
0.0
 20
0.0
 30
0.0
  3
DA_IMAGEDIMGROUP_24
  1

  0
LINE
  5
171
330
9D
100
AcDbEntity
  8
LAYER0014
 62
     2
100
AcDbLine
 10
323.7097988021557
 20
284.2442443179712
 30
0.0
 11
323.7097988021557
 21
264.7442443179712
 31
0.0
  0
LINE
  5
172
330
9D
100
AcDbEntity
  8
LAYER0014
 62
     2
100
AcDbLine
 10
533.7097988021557
 20
284.2442443179712
 30
0.0
 11
533.7097988021557
 21
264.7442443179712
 31
0.0
  0
LINE
  5
173
330
9D
100
AcDbEntity
  8
LAYER0014
 62
     2
100
AcDbLine
 10
323.7097988021557
 20
266.7442443179712
 30
0.0
 11
533.7097988021557
 21
266.7442443179712
 31
0.0
  0
INSERT
  5
174
330
9D
100
AcDbEntity
  8
LAYER0014
 62
     2
100
AcDbBlockReference
  2
_OPEN30
 10
323.7097988021557
 20
266.7442443179712
 30
0.0
 41
6.117281464870029
 42
4.025550470965561
 50
180.0
  0
INSERT
  5
175
330
9D
100
AcDbEntity
  8
LAYER0014
 62
     2
100
AcDbBlockReference
  2
_OPEN30
 10
533.7097988021557
 20
266.7442443179712
 30
0.0
 41
6.117281464870029
 42
4.025550470965561
 50
360.0
  0
TEXT
  5
176
330
9D
100
AcDbEntity
  8
LAYER0014
 62
     2
100
AcDbText
 10
419.1097988021557
 20
268.7442443179712
 30
0.0
 40
8.0
  1
210
 41
0.8842105263157916
  7
DAVECTORFONT
 72
     5
 11
438.3097988021557
 21
268.7442443179712
 31
0.0
100
AcDbText
  0
ENDBLK
  5
9F
330
9D
100
AcDbEntity
  8
0
100
AcDbBlockEnd
  0
BLOCK
  5
A1
330
A0
100
AcDbEntity
  8
0
100
AcDbBlockBegin
  2
GROUP_4
 70
     0
 71
     0
 10
0.0
 20
0.0
 30
0.0
  3
GROUP_4
  1

  0
TEXT
  5
178
330
A0
100
AcDbEntity
  8
LAYER0013
 62
     2
100
AcDbText
 10
372.7097988021557
 20
237.1457996968282
 30
0.0
 40
10.0
  1
ハンドルジョイント
 41
0.9509433962264152
  7
FDASTYLE0
 72
     5
 11
444.7097988021557
 21
237.1457996968282
 31
0.0
100
AcDbText
  0
LINE
  5
179
330
A0
100
AcDbEntity
  8
LAYER0013
 62
     2
100
AcDbLine
 10
371.7097988021557
 20
235.1457996968282
 30
0.0
 11
445.7097988021557
 21
235.1457996968282
 31
0.0
  0
ENDBLK
  5
A2
330
A0
100
AcDbEntity
  8
0
100
AcDbBlockEnd
  0
BLOCK
  5
A4
330
A3
100
AcDbEntity
  8
0
100
AcDbBlockBegin
  2
DA_IMAGEDIMGROUP_25
 70
     0
 71
     0
 10
0.0
 20
0.0
 30
0.0
  3
DA_IMAGEDIMGROUP_25
  1

  0
LINE
  5
17A
330
A3
100
AcDbEntity
  8
LAYER0014
 62
     2
100
AcDbLine
 10
-324.8108273501871
 20
-171.9422304429776
 30
0.0
 11
-342.2698120239108
 21
-171.9422304429776
 31
0.0
  0
LINE
  5
17B
330
A3
100
AcDbEntity
  8
LAYER0014
 62
     2
100
AcDbLine
 10
-340.6698120239108
 20
-200.9422304429776
 30
0.0
 11
-340.6698120239108
 21
-171.9422304429776
 31
0.0
  0
INSERT
  5
17C
330
A3
100
AcDbEntity
  8
LAYER0014
 62
     2
100
AcDbBlockReference
  2
_OPEN30
 10
-340.6698120239108
 20
-200.9422304429776
 30
0.0
 41
6.117281464870029
 42
4.025550470965561
 50
270.0
  0
INSERT
  5
17D
330
A3
100
AcDbEntity
  8
LAYER0014
 62
     2
100
AcDbBlockReference
  2
_OPEN30
 10
-340.6698120239108
 20
-171.9422304429776
 30
0.0
 41
6.117281464870029
 42
4.025550470965561
 50
90.0
  0
TEXT
  5
17E
330
A3
100
AcDbEntity
  8
LAYER0014
 62
     2
100
AcDbText
 10
-342.2698120239108
 20
-196.0422304429776
 30
0.0
 40
8.0
  1
29
 50
90.0
 41
0.93333333333333
  7
DAVECTORFONT
 72
     5
 11
-342.2698120239108
 21
-183.2422304429776
 31
0.0
100
AcDbText
  0
ENDBLK
  5
A5
330
A3
100
AcDbEntity
  8
0
100
AcDbBlockEnd
  0
BLOCK
  5
A7
330
A6
100
AcDbEntity
  8
0
100
AcDbBlockBegin
  2
DA_IMAGEDIMGROUP_26
 70
     0
 71
     0
 10
0.0
 20
0.0
 30
0.0
  3
DA_IMAGEDIMGROUP_26
  1

  0
LINE
  5
17F
330
A6
100
AcDbEntity
  8
LAYER0014
 62
     2
100
AcDbLine
 10
412.7249147563524
 20
-203.9422304429776
 30
0.0
 11
412.7249147563524
 21
-228.9422304429775
 31
0.0
  0
LINE
  5
180
330
A6
100
AcDbEntity
  8
LAYER0014
 62
     2
100
AcDbLine
 10
430.7249147563524
 20
-203.9422304429776
 30
0.0
 11
430.7249147563524
 21
-228.9422304429775
 31
0.0
  0
LINE
  5
181
330
A6
100
AcDbEntity
  8
LAYER0014
 62
     2
100
AcDbLine
 10
412.7249147563524
 20
-226.9422304429775
 30
0.0
 11
430.7249147563524
 21
-226.9422304429775
 31
0.0
  0
LINE
  5
182
330
A6
100
AcDbEntity
  8
LAYER0014
 62
     2
100
AcDbLine
 10
376.6912806226351
 20
-226.9422304429775
 30
0.0
 11
412.7249147563524
 21
-226.9422304429775
 31
0.0
  0
INSERT
  5
183
330
A6
100
AcDbEntity
  8
LAYER0014
 62
     2
100
AcDbBlockReference
  2
_OPEN30
 10
412.7249147563524
 20
-226.9422304429775
 30
0.0
 41
6.117281464870029
 42
4.025550470965561
 50
360.0
  0
LINE
  5
184
330
A6
100
AcDbEntity
  8
LAYER0014
 62
     2
100
AcDbLine
 10
439.4749147563524
 20
-226.9422304429775
 30
0.0
 11
430.7249147563524
 21
-226.9422304429775
 31
0.0
  0
INSERT
  5
185
330
A6
100
AcDbEntity
  8
LAYER0014
 62
     2
100
AcDbBlockReference
  2
_OPEN30
 10
430.7249147563524
 20
-226.9422304429775
 30
0.0
 41
6.117281464870029
 42
4.025550470965561
 50
180.0
  0
TEXT
  5
186
330
A6
100
AcDbEntity
  8
LAYER0014
 62
     2
100
AcDbText
 10
379.8912806226351
 20
-224.9422304429775
 30
0.0
 40
8.0
  1
18
 41
0.9081081081081089
  7
DAVECTORFONT
 72
     5
 11
392.6912806226351
 21
-224.9422304429775
 31
0.0
100
AcDbText
  0
TEXT
  5
187
330
A6
100
AcDbEntity
  8
LAYER0014
 62
     2
100
AcDbText
 10
393.6912806226351
 20
-224.9422304429775
 30
0.0
 40
8.0
  1
H7
 41
0.8615384615384624
  7
DAVECTORFONT
 72
     5
 11
406.4912806226351
 21
-224.9422304429775
 31
0.0
100
AcDbText
  0
ENDBLK
  5
A8
330
A6
100
AcDbEntity
  8
0
100
AcDbBlockEnd
  0
BLOCK
  5
AA
330
A9
100
AcDbEntity
  8
0
100
AcDbBlockBegin
  2
DA_IMAGEDIMGROUP_27
 70
     0
 71
     0
 10
0.0
 20
0.0
 30
0.0
  3
DA_IMAGEDIMGROUP_27
  1

  0
LINE
  5
188
330
A9
100
AcDbEntity
  8
LAYER0014
 62
     2
100
AcDbLine
 10
432.1249147563524
 20
-196.9422304429777
 30
0.0
 11
450.8249147563524
 21
-196.9422304429777
 31
0.0
  0
LINE
  5
189
330
A9
100
AcDbEntity
  8
LAYER0014
 62
     2
100
AcDbLine
 10
449.2249147563524
 20
-200.9422304429776
 30
0.0
 11
449.2249147563524
 21
-196.9422304429777
 31
0.0
  0
LINE
  5
18A
330
A9
100
AcDbEntity
  8
LAYER0014
 62
     2
100
AcDbLine
 10
449.2249147563524
 20
-213.2510704429775
 30
0.0
 11
449.2249147563524
 21
-200.9422304429776
 31
0.0
  0
INSERT
  5
18B
330
A9
100
AcDbEntity
  8
LAYER0014
 62
     2
100
AcDbBlockReference
  2
_OPEN30
 10
449.2249147563524
 20
-200.9422304429776
 30
0.0
 41
6.117281464870029
 42
4.025550470965561
 50
90.0
  0
LINE
  5
18C
330
A9
100
AcDbEntity
  8
LAYER0014
 62
     2
100
AcDbLine
 10
449.2249147563524
 20
-189.9422304429777
 30
0.0
 11
449.2249147563524
 21
-196.9422304429777
 31
0.0
  0
INSERT
  5
18D
330
A9
100
AcDbEntity
  8
LAYER0014
 62
     2
100
AcDbBlockReference
  2
_OPEN30
 10
449.2249147563524
 20
-196.9422304429777
 30
0.0
 41
6.117281464870029
 42
4.025550470965561
 50
270.0
  0
TEXT
  5
18E
330
A9
100
AcDbEntity
  8
LAYER0014
 62
     2
100
AcDbText
 10
447.6249147563524
 20
-213.2510704429775
 30
0.0
 40
8.0
  1
4
 50
90.0
 41
0.93333333333333
  7
DAVECTORFONT
 72
     5
 11
447.6249147563524
 21
-206.8510704429775
 31
0.0
100
AcDbText
  0
ENDBLK
  5
AB
330
A9
100
AcDbEntity
  8
0
100
AcDbBlockEnd
  0
BLOCK
  5
AD
330
AC
100
AcDbEntity
  8
0
100
AcDbBlockBegin
  2
GROUP_5
 70
     0
 71
     0
 10
0.0
 20
0.0
 30
0.0
  3
GROUP_5
  1

  0
LINE
  5
18F
330
AC
100
AcDbEntity
  8
ZUWAKU
 62
     3
100
AcDbLine
 10
-555.0
 20
385.0
 30
0.0
 11
555.0
 21
385.0
 31
0.0
  0
LINE
  5
190
330
AC
100
AcDbEntity
  8
ZUWAKU
 62
     3
100
AcDbLine
 10
-555.0
 20
-385.0
 30
0.0
 11
-555.0
 21
385.0
 31
0.0
  0
LINE
  5
191
330
AC
100
AcDbEntity
  8
ZUWAKU
 62
     3
100
AcDbLine
 10
555.0
 20
-385.0
 30
0.0
 11
-555.0
 21
-385.0
 31
0.0
  0
LINE
  5
192
330
AC
100
AcDbEntity
  8
ZUWAKU
 62
     3
100
AcDbLine
 10
555.0
 20
385.0
 30
0.0
 11
555.0
 21
-385.0
 31
0.0
  0
ENDBLK
  5
AE
330
AC
100
AcDbEntity
  8
0
100
AcDbBlockEnd
  0
ENDSEC
  0
SECTION
  2
ENTITIES
  0
CIRCLE
  5
193
330
1F
100
AcDbEntity
  8
0
 62
     3
100
AcDbCircle
 10
-304.4108273501896
 20
241.1586587157015
 30
0.0
 40
12.49999999999998
  0
LINE
  5
194
330
1F
100
AcDbEntity
  8
0
 62
     3
100
AcDbLine
 10
-484.410827350188
 20
328.6586587157012
 30
0.0
 11
-407.5793787600049
 21
328.6586587157012
 31
0.0
  0
LINE
  5
195
330
1F
100
AcDbEntity
  8
0
 62
     3
100
AcDbLine
 10
-484.410827350188
 20
153.6586587157016
 30
0.0
 11
-407.5793787600049
 21
153.6586587157016
 31
0.0
  0
ARC
  5
196
330
1F
100
AcDbEntity
  8
0
 62
     3
100
AcDbCircle
 10
-489.410827350188
 20
241.1586587157015
 30
0.0
 40
9.499999999999986
100
AcDbArc
 50
270.0
 51
90.0
  0
LINE
  5
197
330
1F
100
AcDbEntity
  8
0
 62
     3
100
AcDbLine
 10
-489.410827350188
 20
250.6586587157014
 30
0.0
 11
-509.410827350188
 21
250.6586587157014
 31
0.0
  0
LINE
  5
198
330
1F
100
AcDbEntity
  8
0
 62
     3
100
AcDbLine
 10
-489.410827350188
 20
259.1586587157014
 30
0.0
 11
-496.410827350188
 21
259.1586587157014
 31
0.0
  0
LINE
  5
199
330
1F
100
AcDbEntity
  8
0
 62
     3
100
AcDbLine
 10
-489.4108273501884
 20
231.6586587157015
 30
0.0
 11
-509.410827350188
 21
231.6586587157015
 31
0.0
  0
LINE
  5
19A
330
1F
100
AcDbEntity
  8
0
 62
     3
100
AcDbLine
 10
-489.4108273501884
 20
223.1586587157015
 30
0.0
 11
-496.410827350188
 21
223.1586587157015
 31
0.0
  0
LINE
  5
19B
330
1F
100
AcDbEntity
  8
0
 62
     3
100
AcDbLine
 10
-509.410827350188
 20
303.6586587157012
 30
0.0
 11
-509.410827350188
 21
250.6586587157014
 31
0.0
  0
LINE
  5
19C
330
1F
100
AcDbEntity
  8
0
 62
     3
100
AcDbLine
 10
-509.410827350188
 20
231.6586587157015
 30
0.0
 11
-509.410827350188
 21
178.6586587157015
 31
0.0
  0
LINE
  5
19D
330
1F
100
AcDbEntity
  8
0
 62
     3
100
AcDbLine
 10
-484.410827350188
 20
161.6586587157015
 30
0.0
 11
-407.5793787600081
 21
161.6586587157015
 31
0.0
  0
LINE
  5
19E
330
1F
100
AcDbEntity
  8
0
 62
     3
100
AcDbLine
 10
-484.410827350188
 20
320.6586587157012
 30
0.0
 11
-407.5793787600049
 21
320.6586587157012
 31
0.0
  0
LINE
  5
19F
330
1F
100
AcDbEntity
  8
0
 62
     3
100
AcDbLine
 10
-501.410827350188
 20
266.1586587157013
 30
0.0
 11
-509.410827350188
 21
266.1586587157013
 31
0.0
  0
LINE
  5
1A0
330
1F
100
AcDbEntity
  8
0
 62
     3
100
AcDbLine
 10
-509.410827350188
 20
216.1586587157015
 30
0.0
 11
-501.410827350188
 21
216.1586587157015
 31
0.0
  0
ARC
  5
1A1
330
1F
100
AcDbEntity
  8
0
 62
     3
100
AcDbCircle
 10
-496.410827350188
 20
264.1586587157014
 30
0.0
 40
4.999999999999992
100
AcDbArc
 50
180.0
 51
270.0
  0
ARC
  5
1A2
330
1F
100
AcDbEntity
  8
0
 62
     3
100
AcDbCircle
 10
-496.410827350188
 20
218.1586587157015
 30
0.0
 40
4.999999999999992
100
AcDbArc
 50
90.0
 51
180.0
  0
LINE
  5
1A3
330
1F
100
AcDbEntity
  8
0
 62
     3
100
AcDbLine
 10
75.58917264981233
 20
153.6586587157016
 30
0.0
 11
-64.72387177693025
 21
153.6586587157016
 31
0.0
  0
LINE
  5
1A4
330
1F
100
AcDbEntity
  8
0
 62
     3
100
AcDbLine
 10
75.58917264981233
 20
328.6586587157012
 30
0.0
 11
-64.72387177693031
 21
328.6586587157012
 31
0.0
  0
LINE
  5
1A5
330
1F
100
AcDbEntity
  8
0
 62
     3
100
AcDbLine
 10
75.58917264981233
 20
320.6586587157012
 30
0.0
 11
-69.41082735018659
 21
320.6586587157012
 31
0.0
  0
LINE
  5
1A6
330
1F
100
AcDbEntity
  8
0
 62
     3
100
AcDbLine
 10
75.58917264981233
 20
161.6586587157015
 30
0.0
 11
-69.41082735018659
 21
161.6586587157015
 31
0.0
  0
ARC
  5
1A7
330
1F
100
AcDbEntity
  8
0
 62
     3
100
AcDbCircle
 10
75.58917264981233
 20
303.6586587157012
 30
0.0
 40
16.99999999999998
100
AcDbArc
 50
0.0
 51
90.0
  0
ARC
  5
1A8
330
1F
100
AcDbEntity
  8
0
 62
     3
100
AcDbCircle
 10
75.58917264981233
 20
178.6586587157015
 30
0.0
 40
16.99999999999998
100
AcDbArc
 50
270.0
 51
360.0
  0
ARC
  5
1A9
330
1F
100
AcDbEntity
  8
0
 62
     3
100
AcDbCircle
 10
-484.410827350188
 20
303.6586587157012
 30
0.0
 40
16.99999999999998
100
AcDbArc
 50
90.0
 51
180.0
  0
ARC
  5
1AA
330
1F
100
AcDbEntity
  8
0
 62
     3
100
AcDbCircle
 10
-484.410827350188
 20
178.6586587157015
 30
0.0
 40
16.99999999999998
100
AcDbArc
 50
180.0
 51
270.0
  0
ARC
  5
1AB
330
1F
100
AcDbEntity
  8
0
 62
     3
100
AcDbCircle
 10
-484.410827350188
 20
303.6586587157012
 30
0.0
 40
24.99999999999996
100
AcDbArc
 50
90.0
 51
180.0
  0
ARC
  5
1AC
330
1F
100
AcDbEntity
  8
0
 62
     3
100
AcDbCircle
 10
-484.410827350188
 20
178.6586587157015
 30
0.0
 40
24.99999999999996
100
AcDbArc
 50
180.0
 51
270.0
  0
ARC
  5
1AD
330
1F
100
AcDbEntity
  8
0
 62
     3
100
AcDbCircle
 10
75.58917264981233
 20
178.6586587157015
 30
0.0
 40
24.99999999999996
100
AcDbArc
 50
270.0
 51
360.0
  0
ARC
  5
1AE
330
1F
100
AcDbEntity
  8
0
 62
     3
100
AcDbCircle
 10
75.58917264981233
 20
303.6586587157012
 30
0.0
 40
24.99999999999996
100
AcDbArc
 50
0.0
 51
90.0
  0
LINE
  5
1AF
330
1F
100
AcDbEntity
  8
0
 62
     3
100
AcDbLine
 10
-182.4108273501838
 20
183.1586587157016
 30
0.0
 11
-364.4108273501834
 21
183.1586587157016
 31
0.0
  0
LINE
  5
1B0
330
1F
100
AcDbEntity
  8
0
 62
     3
100
AcDbLine
 10
-182.4108273501838
 20
299.1586587157013
 30
0.0
 11
-364.4108273501834
 21
299.1586587157013
 31
0.0
  0
LINE
  5
1B1
330
1F
100
AcDbEntity
  8
0
 62
     3
100
AcDbLine
 10
-182.4108273501838
 20
263.7586587157014
 30
0.0
 11
-364.4108273501834
 21
263.7586587157014
 31
0.0
  0
LINE
  5
1B2
330
1F
100
AcDbEntity
  8
0
 62
     3
100
AcDbLine
 10
-182.4108273501838
 20
218.5586587157015
 30
0.0
 11
-364.4108273501834
 21
218.5586587157015
 31
0.0
  0
ARC
  5
1B3
330
1F
100
AcDbEntity
  8
0
 62
     3
100
AcDbCircle
 10
-154.4108273501906
 20
261.1586587157014
 30
0.0
 40
139.9999999999998
100
AcDbArc
 50
269.9999999999987
 51
309.8381498056472
  0
ARC
  5
1B4
330
1F
100
AcDbEntity
  8
0
 62
     3
100
AcDbCircle
 10
-154.4108273501906
 20
221.1586587157015
 30
0.0
 40
139.9999999999998
100
AcDbArc
 50
50.16185019435282
 51
90.00000000000132
  0
ARC
  5
1B5
330
1F
100
AcDbEntity
  8
0
 62
     3
100
AcDbCircle
 10
-204.4108273501885
 20
341.1586587157012
 30
0.0
 40
9.499999999999986
100
AcDbArc
 50
90.0
 51
269.9999999999807
  0
ARC
  5
1B6
330
1F
100
AcDbEntity
  8
0
 62
     3
100
AcDbCircle
 10
-139.4108273501886
 20
341.1586587157012
 30
0.0
 40
9.499999999999986
100
AcDbArc
 50
269.9999999999808
 51
90.00000000001916
  0
ARC
  5
1B7
330
1F
100
AcDbEntity
  8
0
 62
     3
100
AcDbCircle
 10
-204.4108273501885
 20
141.1586587157016
 30
0.0
 40
19.99999999999997
100
AcDbArc
 50
180.0
 51
269.9999999999907
  0
ARC
  5
1B8
330
1F
100
AcDbEntity
  8
0
 62
     3
100
AcDbCircle
 10
-139.4108273501886
 20
141.1586587157016
 30
0.0
 40
19.99999999999997
100
AcDbArc
 50
296.0816273075826
 51
90.0
  0
ARC
  5
1B9
330
1F
100
AcDbEntity
  8
0
 62
     3
100
AcDbCircle
 10
-139.4108273501886
 20
341.1586587157012
 30
0.0
 40
19.99999999999997
100
AcDbArc
 50
270.0
 51
63.91837269241739
  0
ARC
  5
1BA
330
1F
100
AcDbEntity
  8
0
 62
     3
100
AcDbCircle
 10
-204.4108273501885
 20
341.1586587157012
 30
0.0
 40
19.99999999999997
100
AcDbArc
 50
90.0
 51
180.0
  0
LINE
  5
1BB
330
1F
100
AcDbEntity
  8
0
 62
     3
100
AcDbLine
 10
-204.4108273501885
 20
350.6586587157012
 30
0.0
 11
-139.4108273501886
 21
350.6586587157012
 31
0.0
  0
LINE
  5
1BC
330
1F
100
AcDbEntity
  8
0
 62
     3
100
AcDbLine
 10
-139.4108273501886
 20
331.6586587157012
 30
0.0
 11
-204.4108273501917
 21
331.6586587157012
 31
0.0
  0
LINE
  5
1BD
330
1F
100
AcDbEntity
  8
0
 62
     3
100
AcDbLine
 10
-204.4108273501885
 20
150.6586587157016
 30
0.0
 11
-139.4108273501886
 21
150.6586587157016
 31
0.0
  0
LINE
  5
1BE
330
1F
100
AcDbEntity
  8
0
 62
     3
100
AcDbLine
 10
-204.4108273501918
 20
131.6586587157016
 30
0.0
 11
-139.4108273501919
 21
131.6586587157016
 31
0.0
  0
ARC
  5
1BF
330
1F
100
AcDbEntity
  8
0
 62
     3
100
AcDbCircle
 10
-204.4108273501885
 20
141.1586587157016
 30
0.0
 40
9.499999999999986
100
AcDbArc
 50
90.0
 51
270.0
  0
ARC
  5
1C0
330
1F
100
AcDbEntity
  8
0
 62
     3
100
AcDbCircle
 10
-139.4108273501886
 20
141.1586587157016
 30
0.0
 40
9.499999999999986
100
AcDbArc
 50
269.9999999999805
 51
90.00000000001955
  0
LINE
  5
1C1
330
1F
100
AcDbEntity
  8
0
 62
     3
100
AcDbLine
 10
-254.4108273501872
 20
127.1586587157016
 30
0.0
 11
-254.4108273501872
 21
123.1586587157016
 31
0.0
  0
LINE
  5
1C2
330
1F
100
AcDbEntity
  8
0
 62
     3
100
AcDbLine
 10
-252.4108273501873
 20
129.1586587157016
 30
0.0
 11
-239.3956723551298
 21
129.1586587157016
 31
0.0
  0
LINE
  5
1C3
330
1F
100
AcDbEntity
  8
0
 62
     3
100
AcDbLine
 10
-239.4108273501885
 20
353.1586587157012
 30
0.0
 11
-252.4108273501873
 21
353.1586587157012
 31
0.0
  0
LINE
  5
1C4
330
1F
100
AcDbEntity
  8
0
 62
     3
100
AcDbLine
 10
-254.4108273501872
 20
355.1586587157012
 30
0.0
 11
-254.4108273501872
 21
359.1586587157012
 31
0.0
  0
ARC
  5
1C5
330
1F
100
AcDbEntity
  8
0
 62
     3
100
AcDbCircle
 10
-206.4259823452472
 20
339.1586587157012
 30
0.0
 40
17.99999999999997
100
AcDbArc
 50
180.0
 51
270.0
  0
LINE
  5
1C6
330
1F
100
AcDbEntity
  8
0
 62
     3
100
AcDbLine
 10
-224.4259823452472
 20
339.1586587157012
 30
0.0
 11
-224.4108273501885
 21
341.1586587157012
 31
0.0
  0
ARC
  5
1C7
330
1F
100
AcDbEntity
  8
0
 62
     3
100
AcDbCircle
 10
-206.4108273501885
 20
143.1586587157016
 30
0.0
 40
17.99999999999997
100
AcDbArc
 50
90.0
 51
180.0
  0
LINE
  5
1C8
330
1F
100
AcDbEntity
  8
0
 62
     3
100
AcDbLine
 10
-224.4108273501885
 20
141.1586587157016
 30
0.0
 11
-224.4108273501885
 21
143.1586587157016
 31
0.0
  0
ARC
  5
1C9
330
1F
100
AcDbEntity
  8
0
 62
     3
100
AcDbCircle
 10
-239.3956723551298
 20
144.1586587157016
 30
0.0
 40
14.99999999999998
100
AcDbArc
 50
270.0
 51
358.2634984240621
  0
ARC
  5
1CA
330
1F
100
AcDbEntity
  8
0
 62
     3
100
AcDbCircle
 10
-239.4108273501885
 20
338.1586587157012
 30
0.0
 40
14.99999999999998
100
AcDbArc
 50
1.736501575937905
 51
90.0
  0
ARC
  5
1CB
330
1F
100
AcDbEntity
  8
0
 62
     3
100
AcDbCircle
 10
-252.4108273501873
 20
355.1586587157012
 30
0.0
 40
1.999999999999997
100
AcDbArc
 50
180.0
 51
270.0
  0
ARC
  5
1CC
330
1F
100
AcDbEntity
  8
0
 62
     3
100
AcDbCircle
 10
-252.4108273501873
 20
127.1586587157016
 30
0.0
 40
1.999999999999997
100
AcDbArc
 50
90.0
 51
180.0
  0
ARC
  5
1CD
330
1F
100
AcDbEntity
  8
0
 62
     3
100
AcDbCircle
 10
-252.4108273501873
 20
359.1586587157012
 30
0.0
 40
1.999999999999997
100
AcDbArc
 50
90.0
 51
180.0
  0
ARC
  5
1CE
330
1F
100
AcDbEntity
  8
0
 62
     3
100
AcDbCircle
 10
-252.4108273501873
 20
123.1586587157016
 30
0.0
 40
1.999999999999997
100
AcDbArc
 50
180.0
 51
270.0
  0
LINE
  5
1CF
330
1F
100
AcDbEntity
  8
0
 62
     3
100
AcDbLine
 10
-356.6449137362281
 20
129.8085342460117
 30
0.0
 11
-335.9716760789355
 21
122.2840910928461
 31
0.0
  0
ARC
  5
1D0
330
1F
100
AcDbEntity
  8
0
 62
     3
100
AcDbCircle
 10
-333.3476946091623
 20
121.3290399425826
 30
0.0
 40
2.792382755521243
100
AcDbArc
 50
78.30803696981484
 51
160.0000000000001
  0
ARC
  5
1D1
330
1F
100
AcDbEntity
  8
0
 62
     3
100
AcDbCircle
 10
-357.9636027368649
 20
130.2884977904978
 30
0.0
 40
1.403319523286202
100
AcDbArc
 50
339.9999999999995
 51
67.74535759651764
  0
ARC
  5
1D2
330
1F
100
AcDbEntity
  8
0
 62
     3
100
AcDbCircle
 10
-361.4108273501915
 20
323.3231279222857
 30
0.0
 40
17.99999999999997
100
AcDbArc
 50
83.30061552375571
 51
155.0157695848048
  0
ARC
  5
1D3
330
1F
100
AcDbEntity
  8
0
 62
     3
100
AcDbCircle
 10
-304.4108273501884
 20
221.1586587157015
 30
0.0
 40
131.9999999999998
100
AcDbArc
 50
111.6301893791763
 51
114.5766360171211
  0
ARC
  5
1D4
330
1F
100
AcDbEntity
  8
0
 62
     3
100
AcDbCircle
 10
-304.4108273501884
 20
221.1586587157015
 30
0.0
 40
131.9999999999998
100
AcDbArc
 50
123.7397490914395
 51
124.9707808802112
  0
ARC
  5
1D5
330
1F
100
AcDbEntity
  8
0
 62
     3
100
AcDbCircle
 10
-361.4108273501915
 20
158.994189509117
 30
0.0
 40
17.99999999999997
100
AcDbArc
 50
204.984230415206
 51
276.6993844762361
  0
ARC
  5
1D6
330
1F
100
AcDbEntity
  8
0
 62
     3
100
AcDbCircle
 10
-304.4108273501917
 20
261.1586587157014
 30
0.0
 40
131.9999999999998
100
AcDbArc
 50
235.0292191197887
 51
236.2602509085629
  0
ARC
  5
1D7
330
1F
100
AcDbEntity
  8
0
 62
     3
100
AcDbCircle
 10
-304.4108273501917
 20
261.1586587157014
 30
0.0
 40
131.9999999999998
100
AcDbArc
 50
245.4233639828792
 51
248.3698106208249
  0
LINE
  5
1D8
330
1F
100
AcDbEntity
  8
0
 62
     3
100
AcDbLine
 10
-351.9822695203211
 20
346.5455472584989
 30
0.0
 11
-353.6296949079529
 21
350.1951535724722
 31
0.0
  0
LINE
  5
1D9
330
1F
100
AcDbEntity
  8
0
 62
     3
100
AcDbLine
 10
-351.9822695203216
 20
135.7717701729028
 30
0.0
 11
-353.629694907953
 21
132.1221638589306
 31
0.0
  0
ARC
  5
1DA
330
1F
100
AcDbEntity
  8
0
 62
     3
100
AcDbCircle
 10
-353.8051575628168
 20
136.5946183876593
 30
0.0
 40
1.999999999999997
100
AcDbArc
 50
335.7056735574028
 51
68.36981062082492
  0
ARC
  5
1DB
330
1F
100
AcDbEntity
  8
0
 62
     3
100
AcDbCircle
 10
-353.8051575628163
 20
345.7226990437424
 30
0.0
 40
1.999999999999997
100
AcDbArc
 50
291.6301893791764
 51
24.29432644259771
  0
ARC
  5
1DC
330
1F
100
AcDbEntity
  8
0
 62
     3
100
AcDbCircle
 10
-355.452582950448
 20
349.3723053577157
 30
0.0
 40
1.999999999999997
100
AcDbArc
 50
24.29432644259802
 51
111.7074640425959
  0
ARC
  5
1DD
330
1F
100
AcDbEntity
  8
0
 62
     3
100
AcDbCircle
 10
-355.4525829504481
 20
132.9450120736871
 30
0.0
 40
1.999999999999997
100
AcDbArc
 50
248.292535957404
 51
335.7056735574019
  0
ARC
  5
1DE
330
1F
100
AcDbEntity
  8
0
 62
     3
100
AcDbCircle
 10
-407.5793787600049
 20
368.6586587157011
 30
0.0
 40
39.99999999999994
100
AcDbArc
 50
270.0
 51
304.9707808802112
  0
ARC
  5
1DF
330
1F
100
AcDbEntity
  8
0
 62
     3
100
AcDbCircle
 10
-407.5793787600049
 20
113.6586587157016
 30
0.0
 40
39.99999999999994
100
AcDbArc
 50
55.02921911978878
 51
90.0
  0
ARC
  5
1E0
330
1F
100
AcDbEntity
  8
0
 62
     3
100
AcDbCircle
 10
-407.5793787600049
 20
368.6586587157011
 30
0.0
 40
47.99999999999993
100
AcDbArc
 50
270.0
 51
304.9707808802112
  0
ARC
  5
1E1
330
1F
100
AcDbEntity
  8
0
 62
     3
100
AcDbCircle
 10
-407.5793787600081
 20
113.6586587157016
 30
0.0
 40
47.99999999999993
100
AcDbArc
 50
55.02921911978876
 51
90.0
  0
LINE
  5
1E2
330
1F
100
AcDbEntity
  8
0
 62
     3
100
AcDbLine
 10
-313.4108273501884
 20
-196.9422304429776
 30
0.0
 11
-295.4108273501884
 21
-196.9422304429776
 31
0.0
  0
LINE
  5
1E3
330
1F
100
AcDbEntity
  8
0
 62
     3
100
AcDbLine
 10
-295.4108273501884
 20
-196.9422304429776
 30
0.0
 11
-295.4108273501884
 21
-208.9422304429776
 31
0.0
  0
LINE
  5
1E4
330
1F
100
AcDbEntity
  8
0
 62
     3
100
AcDbLine
 10
-295.4108273501884
 20
-208.9422304429776
 30
0.0
 11
-313.4108273501884
 21
-208.9422304429776
 31
0.0
  0
LINE
  5
1E5
330
1F
100
AcDbEntity
  8
0
 62
     3
100
AcDbLine
 10
-313.4108273501884
 20
-208.9422304429776
 30
0.0
 11
-313.4108273501884
 21
-196.9422304429776
 31
0.0
  0
LINE
  5
1E6
330
1F
100
AcDbEntity
  8
0
 62
     3
100
AcDbLine
 10
-509.4108273501869
 20
-200.9422304429776
 30
0.0
 11
-509.4108273501869
 21
-175.9422304429776
 31
0.0
  0
LINE
  5
1E7
330
1F
100
AcDbEntity
  8
0
 62
     3
100
AcDbLine
 10
-506.4108273501869
 20
-172.9422304429776
 30
0.0
 11
-353.4153561533275
 21
-172.9422304429774
 31
0.0
  0
LINE
  5
1E8
330
1F
100
AcDbEntity
  8
0
 62
     3
100
AcDbLine
 10
100.5891726498136
 20
-200.9422304429776
 30
0.0
 11
100.5891726498136
 21
-175.9422304429776
 31
0.0
  0
LINE
  5
1E9
330
1F
100
AcDbEntity
  8
0
 62
     3
100
AcDbLine
 10
-252.4108273501861
 20
-172.9422304429776
 30
0.0
 11
-205.4108273501905
 21
-172.9422304429776
 31
0.0
  0
LINE
  5
1EA
330
1F
100
AcDbEntity
  8
0
 62
     3
100
AcDbLine
 10
-509.4108273501869
 20
-200.9422304429776
 30
0.0
 11
-313.4108273501884
 21
-200.9422304429776
 31
0.0
  0
LINE
  5
1EB
330
1F
100
AcDbEntity
  8
0
 62
     3
100
AcDbLine
 10
-295.4108273501884
 20
-200.9422304429776
 30
0.0
 11
100.5891726498136
 21
-200.9422304429776
 31
0.0
  0
ARC
  5
1EC
330
1F
100
AcDbEntity
  8
0
 62
     3
100
AcDbCircle
 10
-506.4108273501869
 20
-175.9422304429776
 30
0.0
 40
2.999999999999996
100
AcDbArc
 50
90.0
 51
180.0
  0
ARC
  5
1ED
330
1F
100
AcDbEntity
  8
0
 62
     3
100
AcDbCircle
 10
97.58917264981355
 20
-175.9422304429776
 30
0.0
 40
2.999999999999996
100
AcDbArc
 50
0.0
 51
90.0
  0
LINE
  5
1EE
330
1F
100
AcDbEntity
  8
0
 62
     3
100
AcDbLine
 10
97.58917264981355
 20
-172.9422304429776
 30
0.0
 11
-129.6178037071841
 21
-172.9422304429776
 31
0.0
  0
LINE
  5
1EF
330
1F
100
AcDbEntity
  8
0
 62
     3
100
AcDbLine
 10
-119.4108273501874
 20
-171.9422304429776
 30
0.0
 11
-224.4025609892462
 21
-171.9422304429776
 31
0.0
  0
ARC
  5
1F0
330
1F
100
AcDbEntity
  8
0
 62
     3
100
AcDbCircle
 10
-129.6178037071841
 20
-171.9422304429776
 30
0.0
 40
0.9999999999999985
100
AcDbArc
 50
180.0
 51
270.0
  0
ARC
  5
1F1
330
1F
100
AcDbEntity
  8
0
 62
     3
100
AcDbCircle
 10
-205.4108273501905
 20
-171.9422304429776
 30
0.0
 40
0.9999999999999985
100
AcDbArc
 50
270.0
 51
360.0
  0
ARC
  5
1F2
330
1F
100
AcDbEntity
  8
0
 62
     3
100
AcDbCircle
 10
-225.4025609892462
 20
-171.9422304429776
 30
0.0
 40
0.9999999999999985
100
AcDbArc
 50
270.0
 51
360.0
  0
ARC
  5
1F3
330
1F
100
AcDbEntity
  8
0
 62
     3
100
AcDbCircle
 10
-118.4108273501874
 20
-171.9422304429776
 30
0.0
 40
0.9999999999999985
100
AcDbArc
 50
180.0
 51
270.0
  0
LINE
  5
1F4
330
1F
100
AcDbEntity
  8
0
 62
     3
100
AcDbLine
 10
-313.9108273501884
 20
-200.9422304429776
 30
0.0
 11
-313.9108273501884
 21
-171.9422304429776
 31
0.0
  0
LINE
  5
1F5
330
1F
100
AcDbEntity
  8
0
 62
     3
100
AcDbLine
 10
-294.9108273501884
 20
-171.9422304429776
 30
0.0
 11
-294.9108273501884
 21
-200.9422304429776
 31
0.0
  0
LINE
  5
1F6
330
1F
100
AcDbEntity
  8
0
 62
     3
100
AcDbLine
 10
-399.4108273501857
 20
-68.94223044297777
 30
0.0
 11
-424.4108273501857
 21
-68.94223044297777
 31
0.0
  0
LINE
  5
1F7
330
1F
100
AcDbEntity
  8
0
 62
     3
100
AcDbLine
 10
-399.4108273501857
 20
-68.94223044297773
 30
0.0
 11
-399.4108273501857
 21
-118.9422304429777
 31
0.0
  0
LINE
  5
1F8
330
1F
100
AcDbEntity
  8
0
 62
     3
100
AcDbLine
 10
77.74618051854361
 20
-148.0430697614355
 30
0.0
 11
62.48450073732229
 21
-148.8429005068983
 31
0.0
  0
LINE
  5
1F9
330
1F
100
AcDbEntity
  8
0
 62
     3
100
AcDbLine
 10
60.58917264980815
 20
-150.8401595764074
 30
0.0
 11
60.58917264980815
 21
-169.3597948244239
 31
0.0
  0
LINE
  5
1FA
330
1F
100
AcDbEntity
  8
0
 62
     3
100
AcDbLine
 10
62.41486116431284
 20
-171.3521842206073
 30
0.0
 11
80.58917264981244
 21
-172.9422304429776
 31
0.0
  0
ARC
  5
1FB
330
1F
100
AcDbEntity
  8
0
 62
     3
100
AcDbCircle
 10
77.58917264981483
 20
-145.0471811571719
 30
0.0
 40
2.999999999999996
100
AcDbArc
 50
273.0000000000002
 51
360.0
  0
ARC
  5
1FC
330
1F
100
AcDbEntity
  8
0
 62
     3
100
AcDbCircle
 10
62.58917264980815
 20
-150.8401595764074
 30
0.0
 40
1.999999999999997
100
AcDbArc
 50
92.99999999999909
 51
180.0
  0
ARC
  5
1FD
330
1F
100
AcDbEntity
  8
0
 62
     3
100
AcDbCircle
 10
62.58917264980815
 20
-169.3597948244239
 30
0.0
 40
1.999999999999997
100
AcDbArc
 50
180.0
 51
265.0000000000018
  0
CIRCLE
  5
1FE
330
1F
100
AcDbEntity
  8
0
 62
     3
100
AcDbCircle
 10
-22.41082735018509
 20
-157.9422304429776
 30
0.0
 40
9.999999999999984
  0
CIRCLE
  5
1FF
330
1F
100
AcDbEntity
  8
0
 62
     3
100
AcDbCircle
 10
-222.4108273501848
 20
-157.9422304429776
 30
0.0
 40
9.999999999999984
  0
CIRCLE
  5
200
330
1F
100
AcDbEntity
  8
0
 62
     3
100
AcDbCircle
 10
-122.4108273501849
 20
-157.9422304429776
 30
0.0
 40
9.999999999999984
  0
LINE
  5
201
330
1F
100
AcDbEntity
  8
0
 62
     3
100
AcDbLine
 10
80.58917264981483
 20
-133.9422304429777
 30
0.0
 11
-389.4108273501832
 21
-133.9422304429776
 31
0.0
  0
ARC
  5
202
330
1F
100
AcDbEntity
  8
0
 62
     3
100
AcDbCircle
 10
-22.41082735018509
 20
-157.9422304429776
 30
0.0
 40
12.99999999999998
100
AcDbArc
 50
147.4210296071959
 51
32.57897039280408
  0
LINE
  5
203
330
1F
100
AcDbEntity
  8
0
 62
     3
100
AcDbLine
 10
-11.45637620008179
 20
-150.9422304429777
 30
0.0
 11
60.58917264980815
 21
-150.9422304429777
 31
0.0
  0
LINE
  5
204
330
1F
100
AcDbEntity
  8
0
 62
     3
100
AcDbLine
 10
-111.4563762000816
 20
-150.9422304429777
 30
0.0
 11
-33.3652785002884
 21
-150.9422304429777
 31
0.0
  0
ARC
  5
205
330
1F
100
AcDbEntity
  8
0
 62
     3
100
AcDbCircle
 10
-122.4108273501849
 20
-157.9422304429776
 30
0.0
 40
12.99999999999998
100
AcDbArc
 50
147.4210296071959
 51
32.57897039280408
  0
LINE
  5
206
330
1F
100
AcDbEntity
  8
0
 62
     3
100
AcDbLine
 10
-389.4108273501832
 20
-150.9422304429777
 30
0.0
 11
-233.3652785002881
 21
-150.9422304429777
 31
0.0
  0
LINE
  5
207
330
1F
100
AcDbEntity
  8
0
 62
     3
100
AcDbLine
 10
-211.4563762000815
 20
-150.9422304429777
 30
0.0
 11
-133.3652785002882
 21
-150.9422304429777
 31
0.0
  0
ARC
  5
208
330
1F
100
AcDbEntity
  8
0
 62
     3
100
AcDbCircle
 10
-222.4108273501848
 20
-157.9422304429776
 30
0.0
 40
12.99999999999998
100
AcDbArc
 50
147.4210296071959
 51
32.57897039280408
  0
LINE
  5
209
330
1F
100
AcDbEntity
  8
0
 62
     3
100
AcDbLine
 10
-394.4108273501845
 20
-127.9422304429777
 30
0.0
 11
-394.4108273501845
 21
-118.9422304429777
 31
0.0
  0
LINE
  5
20A
330
1F
100
AcDbEntity
  8
0
 62
     3
100
AcDbLine
 10
-399.4108273501845
 20
-132.9422304429777
 30
0.0
 11
-424.4108273501845
 21
-132.9422304429777
 31
0.0
  0
LINE
  5
20B
330
1F
100
AcDbEntity
  8
0
 62
     3
100
AcDbLine
 10
-429.4108273501845
 20
-127.9422304429777
 30
0.0
 11
-429.4108273501845
 21
-112.9422304429777
 31
0.0
  0
LINE
  5
20C
330
1F
100
AcDbEntity
  8
0
 62
     3
100
AcDbLine
 10
-429.4108273501845
 20
-112.9422304429777
 30
0.0
 11
-424.4108273501857
 21
-68.94223044297777
 31
0.0
  0
ARC
  5
20D
330
1F
100
AcDbEntity
  8
0
 62
     3
100
AcDbCircle
 10
-424.4108273501845
 20
-127.9422304429777
 30
0.0
 40
4.999999999999992
100
AcDbArc
 50
180.0
 51
270.0
  0
ARC
  5
20E
330
1F
100
AcDbEntity
  8
0
 62
     3
100
AcDbCircle
 10
-399.4108273501845
 20
-127.9422304429777
 30
0.0
 40
4.999999999999992
100
AcDbArc
 50
270.0
 51
360.0
  0
LINE
  5
20F
330
1F
100
AcDbEntity
  8
0
 62
     3
100
AcDbLine
 10
-364.4108273501857
 20
-118.9422304429777
 30
0.0
 11
-364.4108273501857
 21
-122.9422304429776
 31
0.0
  0
LINE
  5
210
330
1F
100
AcDbEntity
  8
0
 62
     3
100
AcDbLine
 10
-364.4108273501857
 20
-122.9422304429759
 30
0.0
 11
-345.3582684669251
 21
-133.9422304429776
 31
0.0
  0
LINE
  5
211
330
1F
100
AcDbEntity
  8
0
 62
     3
100
AcDbLine
 10
-350.5544208896317
 20
-130.9422304429776
 30
0.0
 11
-394.5118478646181
 21
-130.9422304429776
 31
0.0
  0
ARC
  5
212
330
1F
100
AcDbEntity
  8
0
 62
     3
100
AcDbCircle
 10
-394.5118478646181
 20
-132.9422304429776
 30
0.0
 40
1.999999999999997
100
AcDbArc
 50
90.0
 51
134.4153085971948
  0
LINE
  5
213
330
1F
100
AcDbEntity
  8
0
 62
     3
100
AcDbLine
 10
-389.4108273501832
 20
-150.9422304429777
 30
0.0
 11
-389.4108273501832
 21
-133.9422304429776
 31
0.0
  0
LINE
  5
214
330
1F
100
AcDbEntity
  8
0
 62
     3
100
AcDbLine
 10
-482.8033879186575
 20
-101.9188521532427
 30
0.0
 11
-489.0171283643225
 21
-172.9422304429776
 31
0.0
  0
LINE
  5
215
330
1F
100
AcDbEntity
  8
0
 62
     3
100
AcDbLine
 10
-477.84144093774
 20
-94.13015554287514
 30
0.0
 11
-440.5710813880294
 21
-72.61210342405559
 31
0.0
  0
LINE
  5
216
330
1F
100
AcDbEntity
  8
0
 62
     3
100
AcDbLine
 10
-509.0089035615389
 20
-131.4422304429775
 30
0.0
 11
-502.6060619928925
 21
-120.3521835332683
 31
0.0
  0
LINE
  5
217
330
1F
100
AcDbEntity
  8
0
 62
     3
100
AcDbLine
 10
-504.289507006626
 20
-135.0635507865372
 30
0.0
 11
-499.6326527571335
 21
-130.4066965370448
 31
0.0
  0
ARC
  5
218
330
1F
100
AcDbEntity
  8
0
 62
     3
100
AcDbCircle
 10
-506.4108273501855
 20
-132.9422304429775
 30
0.0
 40
2.999999999999996
100
AcDbArc
 50
150.0
 51
315.0
  0
LINE
  5
219
330
1F
100
AcDbEntity
  8
0
 62
     3
100
AcDbLine
 10
-496.0971188512008
 20
-128.9422304429775
 30
0.0
 11
-490.6241696745282
 21
-128.9422304429775
 31
0.0
  0
LINE
  5
21A
330
1F
100
AcDbEntity
  8
0
 62
     3
100
AcDbLine
 10
-497.3660093883069
 20
-115.95525732541
 30
0.0
 11
-486.5860823407289
 21
-112.0316847525278
 31
0.0
  0
ARC
  5
21B
330
1F
100
AcDbEntity
  8
0
 62
     3
100
AcDbCircle
 10
-490.6241696745282
 20
-133.9422304429775
 30
0.0
 40
4.999999999999992
100
AcDbArc
 50
355.0000000000002
 51
90.0
  0
ARC
  5
21C
330
1F
100
AcDbEntity
  8
0
 62
     3
100
AcDbCircle
 10
-496.0971188512008
 20
-133.9422304429775
 30
0.0
 40
4.999999999999992
100
AcDbArc
 50
90.0
 51
135.0000000000002
  0
ARC
  5
21D
330
1F
100
AcDbEntity
  8
0
 62
     3
100
AcDbCircle
 10
-488.2961830573585
 20
-107.3332216485981
 30
0.0
 40
4.999999999999992
100
AcDbArc
 50
290.0000000000134
 51
355.0000000000002
  0
ARC
  5
21E
330
1F
100
AcDbEntity
  8
0
 62
     3
100
AcDbCircle
 10
-493.9458079550483
 20
-125.3521835332683
 30
0.0
 40
9.999999999999984
100
AcDbArc
 50
110.0000000000137
 51
149.9999999999996
  0
ARC
  5
21F
330
1F
100
AcDbEntity
  8
0
 62
     3
100
AcDbCircle
 10
-472.84144093774
 20
-102.7904095807195
 30
0.0
 40
9.999999999999984
100
AcDbArc
 50
120.0
 51
174.9999999999986
  0
ARC
  5
220
330
1F
100
AcDbEntity
  8
0
 62
     3
100
AcDbCircle
 10
-438.0710813880294
 20
-76.94223044297776
 30
0.0
 40
4.999999999999992
100
AcDbArc
 50
90.0
 51
120.0000000000001
  0
ARC
  5
221
330
1F
100
AcDbEntity
  8
0
 62
     3
100
AcDbCircle
 10
-427.7710441445699
 20
-68.5603876254342
 30
0.0
 40
3.381842817543648
100
AcDbArc
 50
270.0
 51
353.5169263071043
  0
LINE
  5
222
330
1F
100
AcDbEntity
  8
0
 62
     3
100
AcDbLine
 10
-438.0710813880294
 20
-71.94223044297777
 30
0.0
 11
-427.7710441445699
 21
-71.94223044297783
 31
0.0
  0
LINE
  5
223
330
1F
100
AcDbEntity
  8
0
 62
     3
100
AcDbLine
 10
-417.4108273501832
 20
-153.9422304429775
 30
0.0
 11
-481.8983012519835
 21
-153.9422304429775
 31
0.0
  0
LINE
  5
224
330
1F
100
AcDbEntity
  8
0
 62
     3
100
AcDbLine
 10
-422.4108273501832
 20
-135.9422304429777
 30
0.0
 11
-422.4108273501832
 21
-150.9422304429775
 31
0.0
  0
LINE
  5
225
330
1F
100
AcDbEntity
  8
0
 62
     3
100
AcDbLine
 10
-414.4108273501832
 20
-156.9422304429776
 30
0.0
 11
-414.4108273501832
 21
-172.9422304429776
 31
0.0
  0
LINE
  5
226
330
1F
100
AcDbEntity
  8
0
 62
     3
100
AcDbLine
 10
-401.4108273501832
 20
-172.9422304429776
 30
0.0
 11
-401.4108273501832
 21
-135.8794843761713
 31
0.0
  0
ARC
  5
227
330
1F
100
AcDbEntity
  8
0
 62
     3
100
AcDbCircle
 10
-417.4108273501832
 20
-156.9422304429776
 30
0.0
 40
2.999999999999996
100
AcDbArc
 50
0.0
 51
90.0
  0
ARC
  5
228
330
1F
100
AcDbEntity
  8
0
 62
     3
100
AcDbCircle
 10
-419.4108273501832
 20
-135.9422304429777
 30
0.0
 40
2.999999999999996
100
AcDbArc
 50
90.0
 51
180.0
  0
ARC
  5
229
330
1F
100
AcDbEntity
  8
0
 62
     3
100
AcDbCircle
 10
-419.4108273501832
 20
-150.9422304429775
 30
0.0
 40
2.999999999999996
100
AcDbArc
 50
180.0
 51
270.0
  0
ARC
  5
22A
330
1F
100
AcDbEntity
  8
0
 62
     3
100
AcDbCircle
 10
-398.4108273501832
 20
-135.8794843761713
 30
0.0
 40
2.999999999999996
100
AcDbArc
 50
97.18075578147071
 51
180.0
  0
ARC
  5
22B
330
1F
100
AcDbEntity
  8
0
 62
     3
100
AcDbCircle
 10
-481.8983012519835
 20
-148.9422304429775
 30
0.0
 40
4.999999999999992
100
AcDbArc
 50
175.0000000000003
 51
270.0
  0
LINE
  5
22C
330
1F
100
AcDbEntity
  8
0
 62
     3
100
AcDbLine
 10
-382.4108273501857
 20
-118.9422304429777
 30
0.0
 11
-382.4108273501857
 21
-67.94223044297773
 31
0.0
  0
LINE
  5
22D
330
1F
100
AcDbEntity
  8
0
 62
     3
100
AcDbLine
 10
-398.4108273501857
 20
-67.94223044297773
 30
0.0
 11
-382.4108273501857
 21
-67.94223044297773
 31
0.0
  0
LINE
  5
22E
330
1F
100
AcDbEntity
  8
0
 62
     3
100
AcDbLine
 10
-399.4108273501857
 20
-68.94223044297773
 30
0.0
 11
-398.4108273501857
 21
-67.94223044297773
 31
0.0
  0
LINE
  5
22F
330
1F
100
AcDbEntity
  8
0
 62
     3
100
AcDbLine
 10
-398.4108273501845
 20
164.1586587157015
 30
0.0
 11
-382.4108273501845
 21
164.1586587157015
 31
0.0
  0
LINE
  5
230
330
1F
100
AcDbEntity
  8
0
 62
     3
100
AcDbLine
 10
-382.4108273501845
 20
164.1586587157015
 30
0.0
 11
-382.4108273501845
 21
318.1586587157012
 31
0.0
  0
LINE
  5
231
330
1F
100
AcDbEntity
  8
0
 62
     3
100
AcDbLine
 10
-382.4108273501845
 20
318.1586587157012
 30
0.0
 11
-398.4108273501845
 21
318.1586587157012
 31
0.0
  0
LINE
  5
232
330
1F
100
AcDbEntity
  8
0
 62
     3
100
AcDbLine
 10
-399.4108273501845
 20
317.1586587157012
 30
0.0
 11
-399.4108273501845
 21
165.1586587157015
 31
0.0
  0
LINE
  5
233
330
1F
100
AcDbEntity
  8
0
 62
     3
100
AcDbLine
 10
-399.4108273501845
 20
317.1586587157012
 30
0.0
 11
-398.4108273501845
 21
318.1586587157012
 31
0.0
  0
LINE
  5
234
330
1F
100
AcDbEntity
  8
0
 62
     3
100
AcDbLine
 10
-399.4108273501845
 20
165.1586587157015
 30
0.0
 11
-398.4108273501845
 21
164.1586587157015
 31
0.0
  0
LINE
  5
235
330
1F
100
AcDbEntity
  8
0
 62
     3
100
AcDbLine
 10
-429.4108273501832
 20
166.1586587157015
 30
0.0
 11
-399.4108273501845
 21
166.1586587157015
 31
0.0
  0
LINE
  5
236
330
1F
100
AcDbEntity
  8
0
 62
     3
100
AcDbLine
 10
-429.4108273501832
 20
316.1586587157012
 30
0.0
 11
-399.4108273501845
 21
316.1586587157012
 31
0.0
  0
LINE
  5
237
330
1F
100
AcDbEntity
  8
0
 62
     3
100
AcDbLine
 10
-424.4108273501844
 20
166.1586587157015
 30
0.0
 11
-424.4108273501844
 21
316.1586587157012
 31
0.0
  0
LINE
  5
238
330
1F
100
AcDbEntity
  8
0
 62
     3
100
AcDbLine
 10
-479.410827350188
 20
313.1586587157012
 30
0.0
 11
-427.4108273501844
 21
313.1586587157012
 31
0.0
  0
LINE
  5
239
330
1F
100
AcDbEntity
  8
0
 62
     3
100
AcDbLine
 10
-479.410827350188
 20
169.1586587157015
 30
0.0
 11
-427.4108273501844
 21
169.1586587157015
 31
0.0
  0
ARC
  5
23A
330
1F
100
AcDbEntity
  8
0
 62
     3
100
AcDbCircle
 10
-427.4108273501844
 20
316.1586587157012
 30
0.0
 40
2.999999999999996
100
AcDbArc
 50
270.0
 51
360.0
  0
ARC
  5
23B
330
1F
100
AcDbEntity
  8
0
 62
     3
100
AcDbCircle
 10
-432.4108273501832
 20
316.1586587157012
 30
0.0
 40
2.999999999999996
100
AcDbArc
 50
270.0
 51
360.0
  0
ARC
  5
23C
330
1F
100
AcDbEntity
  8
0
 62
     3
100
AcDbCircle
 10
-432.4108273501832
 20
166.1586587157015
 30
0.0
 40
2.999999999999996
100
AcDbArc
 50
0.0
 51
90.0
  0
ARC
  5
23D
330
1F
100
AcDbEntity
  8
0
 62
     3
100
AcDbCircle
 10
-427.4108273501844
 20
166.1586587157015
 30
0.0
 40
2.999999999999996
100
AcDbArc
 50
0.0
 51
90.0
  0
LINE
  5
23E
330
1F
100
AcDbEntity
  8
0
 62
     3
100
AcDbLine
 10
-439.4108273501838
 20
308.1586587157012
 30
0.0
 11
-439.4108273501838
 21
174.1586587157015
 31
0.0
  0
LINE
  5
23F
330
1F
100
AcDbEntity
  8
0
 62
     3
100
AcDbLine
 10
-501.410827350188
 20
264.1586587157014
 30
0.0
 11
-501.410827350188
 21
276.1586587157013
 31
0.0
  0
LINE
  5
240
330
1F
100
AcDbEntity
  8
0
 62
     3
100
AcDbLine
 10
-501.410827350188
 20
296.1586587157012
 30
0.0
 11
-501.410827350188
 21
303.6586587157012
 31
0.0
  0
LINE
  5
241
330
1F
100
AcDbEntity
  8
0
 62
     3
100
AcDbLine
 10
-501.410827350188
 20
218.1586587157015
 30
0.0
 11
-501.410827350188
 21
206.1586587157015
 31
0.0
  0
LINE
  5
242
330
1F
100
AcDbEntity
  8
0
 62
     3
100
AcDbLine
 10
-501.410827350188
 20
186.1586587157015
 30
0.0
 11
-501.410827350188
 21
178.6586587157015
 31
0.0
  0
LINE
  5
243
330
1F
100
AcDbEntity
  8
0
 62
     3
100
AcDbLine
 10
-486.5928312257141
 20
296.1586587157012
 30
0.0
 11
-506.410827350188
 21
296.1586587157012
 31
0.0
  0
LINE
  5
244
330
1F
100
AcDbEntity
  8
0
 62
     3
100
AcDbLine
 10
-486.5928312257141
 20
276.1586587157013
 30
0.0
 11
-506.410827350188
 21
276.1586587157013
 31
0.0
  0
LINE
  5
245
330
1F
100
AcDbEntity
  8
0
 62
     3
100
AcDbLine
 10
-486.5928312257141
 20
206.1586587157015
 30
0.0
 11
-506.410827350188
 21
206.1586587157015
 31
0.0
  0
LINE
  5
246
330
1F
100
AcDbEntity
  8
0
 62
     3
100
AcDbLine
 10
-486.5928312257141
 20
186.1586587157015
 30
0.0
 11
-506.410827350188
 21
186.1586587157015
 31
0.0
  0
ARC
  5
247
330
1F
100
AcDbEntity
  8
0
 62
     3
100
AcDbCircle
 10
-486.5928312257141
 20
299.1586587157012
 30
0.0
 40
2.999999999999996
100
AcDbArc
 50
270.0
 51
360.0
  0
ARC
  5
248
330
1F
100
AcDbEntity
  8
0
 62
     3
100
AcDbCircle
 10
-486.5928312257141
 20
209.1586587157015
 30
0.0
 40
2.999999999999996
100
AcDbArc
 50
270.0
 51
360.0
  0
ARC
  5
249
330
1F
100
AcDbEntity
  8
0
 62
     3
100
AcDbCircle
 10
-486.5928312257141
 20
183.1586587157015
 30
0.0
 40
2.999999999999996
100
AcDbArc
 50
0.0
 51
90.0
  0
ARC
  5
24A
330
1F
100
AcDbEntity
  8
0
 62
     3
100
AcDbCircle
 10
-486.5928312257141
 20
273.1586587157013
 30
0.0
 40
2.999999999999996
100
AcDbArc
 50
0.0
 51
90.0
  0
LINE
  5
24B
330
1F
100
AcDbEntity
  8
0
 62
     3
100
AcDbLine
 10
-483.5928312257141
 20
188.1586587157015
 30
0.0
 11
-483.5928312257141
 21
204.1586587157015
 31
0.0
  0
LINE
  5
24C
330
1F
100
AcDbEntity
  8
0
 62
     3
100
AcDbLine
 10
-483.5928312257141
 20
278.1586587157013
 30
0.0
 11
-483.5928312257141
 21
294.1586587157012
 31
0.0
  0
ARC
  5
24D
330
1F
100
AcDbEntity
  8
0
 62
     3
100
AcDbCircle
 10
-506.410827350188
 20
203.1586587157015
 30
0.0
 40
2.999999999999996
100
AcDbArc
 50
90.0
 51
180.0
  0
ARC
  5
24E
330
1F
100
AcDbEntity
  8
0
 62
     3
100
AcDbCircle
 10
-506.410827350188
 20
189.1586587157015
 30
0.0
 40
2.999999999999996
100
AcDbArc
 50
180.0
 51
270.0
  0
ARC
  5
24F
330
1F
100
AcDbEntity
  8
0
 62
     3
100
AcDbCircle
 10
-506.410827350188
 20
293.1586587157012
 30
0.0
 40
2.999999999999996
100
AcDbArc
 50
90.0
 51
180.0
  0
ARC
  5
250
330
1F
100
AcDbEntity
  8
0
 62
     3
100
AcDbCircle
 10
-506.410827350188
 20
279.1586587157013
 30
0.0
 40
2.999999999999996
100
AcDbArc
 50
180.0
 51
270.0
  0
LINE
  5
251
330
1F
100
AcDbEntity
  8
0
 62
     3
100
AcDbLine
 10
-489.410827350188
 20
179.1586587157015
 30
0.0
 11
-489.410827350188
 21
186.1586587157015
 31
0.0
  0
LINE
  5
252
330
1F
100
AcDbEntity
  8
0
 62
     3
100
AcDbLine
 10
-489.410827350188
 20
303.1586587157012
 30
0.0
 11
-489.410827350188
 21
296.1586587157012
 31
0.0
  0
LINE
  5
253
330
1F
100
AcDbEntity
  8
0
 62
     3
100
AcDbLine
 10
-489.410827350188
 20
276.1586587157013
 30
0.0
 11
-489.410827350188
 21
270.6586587157013
 31
0.0
  0
LINE
  5
254
330
1F
100
AcDbEntity
  8
0
 62
     3
100
AcDbLine
 10
-489.410827350188
 20
211.6586587157015
 30
0.0
 11
-489.410827350188
 21
206.1586587157015
 31
0.0
  0
LINE
  5
255
330
1F
100
AcDbEntity
  8
0
 62
     3
100
AcDbLine
 10
-484.410827350188
 20
216.6586587157015
 30
0.0
 11
-482.4108273501869
 21
216.6586587157015
 31
0.0
  0
LINE
  5
256
330
1F
100
AcDbEntity
  8
0
 62
     3
100
AcDbLine
 10
-484.410827350188
 20
265.6586587157013
 30
0.0
 11
-482.4108273501869
 21
265.6586587157013
 31
0.0
  0
LINE
  5
257
330
1F
100
AcDbEntity
  8
0
 62
     3
100
AcDbLine
 10
-477.4108273501869
 20
260.6586587157014
 30
0.0
 11
-477.4108273501869
 21
221.6586587157015
 31
0.0
  0
ARC
  5
258
330
1F
100
AcDbEntity
  8
0
 62
     3
100
AcDbCircle
 10
-484.410827350188
 20
211.6586587157015
 30
0.0
 40
4.999999999999992
100
AcDbArc
 50
90.0
 51
180.0
  0
ARC
  5
259
330
1F
100
AcDbEntity
  8
0
 62
     3
100
AcDbCircle
 10
-484.410827350188
 20
270.6586587157013
 30
0.0
 40
4.999999999999992
100
AcDbArc
 50
180.0
 51
270.0
  0
ARC
  5
25A
330
1F
100
AcDbEntity
  8
0
 62
     3
100
AcDbCircle
 10
-482.4108273501869
 20
260.6586587157014
 30
0.0
 40
4.999999999999992
100
AcDbArc
 50
0.0
 51
90.0
  0
ARC
  5
25B
330
1F
100
AcDbEntity
  8
0
 62
     3
100
AcDbCircle
 10
-482.4108273501869
 20
221.6586587157015
 30
0.0
 40
4.999999999999992
100
AcDbArc
 50
270.0
 51
360.0
  0
ARC
  5
25C
330
1F
100
AcDbEntity
  8
0
 62
     3
100
AcDbCircle
 10
-489.410827350188
 20
241.1586587157015
 30
0.0
 40
17.99999999999997
100
AcDbArc
 50
270.0
 51
311.8103148957838
  0
ARC
  5
25D
330
1F
100
AcDbEntity
  8
0
 62
     3
100
AcDbCircle
 10
-489.410827350188
 20
241.1586587157015
 30
0.0
 40
17.99999999999997
100
AcDbArc
 50
48.18968510421617
 51
90.0
  0
ARC
  5
25E
330
1F
100
AcDbEntity
  8
0
 62
     3
100
AcDbCircle
 10
-479.410827350188
 20
303.1586587157012
 30
0.0
 40
9.999999999999984
100
AcDbArc
 50
90.0
 51
180.0
  0
ARC
  5
25F
330
1F
100
AcDbEntity
  8
0
 62
     3
100
AcDbCircle
 10
-479.410827350188
 20
179.1586587157015
 30
0.0
 40
9.999999999999984
100
AcDbArc
 50
180.0
 51
270.0
  0
LINE
  5
260
330
1F
100
AcDbEntity
  8
0
 62
     3
100
AcDbLine
 10
-286.4108273501917
 20
341.1586587157012
 30
0.0
 11
-286.4108273501917
 21
361.1586587157012
 31
0.0
  0
LINE
  5
261
330
1F
100
AcDbEntity
  8
0
 62
     3
100
AcDbLine
 10
-322.4108273501915
 20
341.1586587157012
 30
0.0
 11
-322.4108273501915
 21
359.9966938501697
 31
0.0
  0
LINE
  5
262
330
1F
100
AcDbEntity
  8
0
 62
     3
100
AcDbLine
 10
-313.9108273501896
 20
341.1586587157012
 30
0.0
 11
-313.9108273501896
 21
360.8359653907656
 31
0.0
  0
LINE
  5
263
330
1F
100
AcDbEntity
  8
0
 62
     3
100
AcDbLine
 10
-294.9108273501896
 20
341.1586587157012
 30
0.0
 11
-294.9108273501896
 21
361.1586587157012
 31
0.0
  0
LINE
  5
264
330
1F
100
AcDbEntity
  8
0
 62
     3
100
AcDbLine
 10
-294.9108273501896
 20
141.1586587157016
 30
0.0
 11
-294.9108273501896
 21
121.1586587157016
 31
0.0
  0
LINE
  5
265
330
1F
100
AcDbEntity
  8
0
 62
     3
100
AcDbLine
 10
-286.4108273501897
 20
141.1586587157016
 30
0.0
 11
-286.4108273501897
 21
121.1586587157016
 31
0.0
  0
LINE
  5
266
330
1F
100
AcDbEntity
  8
0
 62
     3
100
AcDbLine
 10
-313.9108273501896
 20
141.1586587157016
 30
0.0
 11
-313.9108273501896
 21
121.4813520406373
 31
0.0
  0
LINE
  5
267
330
1F
100
AcDbEntity
  8
0
 62
     3
100
AcDbLine
 10
-322.4108273501896
 20
141.1586587157016
 30
0.0
 11
-322.4108273501896
 21
122.3206235812329
 31
0.0
  0
ARC
  5
268
330
1F
100
AcDbEntity
  8
0
 62
     3
100
AcDbCircle
 10
-304.4108273501896
 20
141.1586587157016
 30
0.0
 40
9.499999999999986
100
AcDbArc
 50
0.0
 51
180.0
  0
ARC
  5
269
330
1F
100
AcDbEntity
  8
0
 62
     3
100
AcDbCircle
 10
-304.4108273501896
 20
141.1586587157016
 30
0.0
 40
17.99999999999997
100
AcDbArc
 50
0.0
 51
180.0
  0
LINE
  5
26A
330
1F
100
AcDbEntity
  8
0
 62
     3
100
AcDbLine
 10
-154.4108273501938
 20
121.1586587157016
 30
0.0
 11
-294.9108273501896
 21
121.1586587157017
 31
0.0
  0
ARC
  5
26B
330
1F
100
AcDbEntity
  8
0
 62
     3
100
AcDbCircle
 10
-304.4108273501884
 20
261.1586587157014
 30
0.0
 40
139.9999999999998
100
AcDbArc
 50
235.0292191197887
 51
266.1090821848295
  0
ARC
  5
26C
330
1F
100
AcDbEntity
  8
0
 62
     3
100
AcDbCircle
 10
-304.4108273501896
 20
341.1586587157012
 30
0.0
 40
9.499999999999986
100
AcDbArc
 50
180.0
 51
360.0
  0
LINE
  5
26D
330
1F
100
AcDbEntity
  8
0
 62
     3
100
AcDbLine
 10
-154.4108273501906
 20
361.1586587157012
 30
0.0
 11
-294.9108273501896
 21
361.1586587157012
 31
0.0
  0
ARC
  5
26E
330
1F
100
AcDbEntity
  8
0
 62
     3
100
AcDbCircle
 10
-304.4108273501884
 20
221.1586587157015
 30
0.0
 40
139.9999999999998
100
AcDbArc
 50
93.8909178151705
 51
124.9707808802112
  0
ARC
  5
26F
330
1F
100
AcDbEntity
  8
0
 62
     3
100
AcDbCircle
 10
-304.4108273501915
 20
341.1586587157012
 30
0.0
 40
17.99999999999997
100
AcDbArc
 50
180.0
 51
360.0
  0
LINE
  5
270
330
1F
100
AcDbEntity
  8
0
 62
     3
100
AcDbLine
 10
-382.4108273501845
 20
296.1586587157012
 30
0.0
 11
-367.4108273501834
 21
296.1586587157012
 31
0.0
  0
LINE
  5
271
330
1F
100
AcDbEntity
  8
0
 62
     3
100
AcDbLine
 10
-367.4108273501834
 20
186.1586587157015
 30
0.0
 11
-382.4108273501845
 21
186.1586587157015
 31
0.0
  0
ARC
  5
272
330
1F
100
AcDbEntity
  8
0
 62
     3
100
AcDbCircle
 10
-367.4108273501834
 20
299.1586587157012
 30
0.0
 40
2.999999999999996
100
AcDbArc
 50
270.0
 51
360.0
  0
ARC
  5
273
330
1F
100
AcDbEntity
  8
0
 62
     3
100
AcDbCircle
 10
-367.4108273501834
 20
183.1586587157015
 30
0.0
 40
2.999999999999996
100
AcDbArc
 50
0.0
 51
90.0
  0
LINE
  5
274
330
1F
100
AcDbEntity
  8
0
 62
     3
100
AcDbLine
 10
-382.4108273501845
 20
265.6586587157013
 30
0.0
 11
-366.3108273501833
 21
265.6586587157013
 31
0.0
  0
LINE
  5
275
330
1F
100
AcDbEntity
  8
0
 62
     3
100
AcDbLine
 10
-366.3108273501833
 20
216.6586587157015
 30
0.0
 11
-382.4108273501845
 21
216.6586587157015
 31
0.0
  0
ARC
  5
276
330
1F
100
AcDbEntity
  8
0
 62
     3
100
AcDbCircle
 10
-366.3108273501833
 20
263.7586587157014
 30
0.0
 40
1.899999999999997
100
AcDbArc
 50
0.0
 51
90.0
  0
ARC
  5
277
330
1F
100
AcDbEntity
  8
0
 62
     3
100
AcDbCircle
 10
-366.3108273501833
 20
218.5586587157015
 30
0.0
 40
1.899999999999997
100
AcDbArc
 50
270.0
 51
360.0
  0
LINE
  5
278
330
1F
100
AcDbEntity
  8
0
 62
     3
100
AcDbLine
 10
-279.410827350186
 20
299.1586587157013
 30
0.0
 11
-279.410827350186
 21
361.1586587157012
 31
0.0
  0
LINE
  5
279
330
1F
100
AcDbEntity
  8
0
 62
     3
100
AcDbLine
 10
-329.4108273501857
 20
299.1586587157013
 30
0.0
 11
-329.4108273501857
 21
358.9084318552602
 31
0.0
  0
LINE
  5
27A
330
1F
100
AcDbEntity
  8
0
 62
     3
100
AcDbLine
 10
-329.4108273501857
 20
183.1586587157016
 30
0.0
 11
-329.4108273501857
 21
123.408885576142
 31
0.0
  0
LINE
  5
27B
330
1F
100
AcDbEntity
  8
0
 62
     3
100
AcDbLine
 10
-279.410827350186
 20
121.1586587157016
 30
0.0
 11
-279.410827350186
 21
183.1586587157015
 31
0.0
  0
LINE
  5
27C
330
1F
100
AcDbEntity
  8
0
 62
     3
100
AcDbLine
 10
-206.4259823452474
 20
321.1586587157012
 30
0.0
 11
-72.53332634938568
 21
321.1586587157012
 31
0.0
  0
LINE
  5
27D
330
1F
100
AcDbEntity
  8
0
 62
     3
100
AcDbLine
 10
-206.4108273501885
 20
161.1586587157015
 30
0.0
 11
-72.53332634938579
 21
161.1586587157015
 31
0.0
  0
ARC
  5
27E
330
1F
100
AcDbEntity
  8
0
 62
     3
100
AcDbCircle
 10
-72.53332634938566
 20
311.1586587157012
 30
0.0
 40
9.999999999999984
100
AcDbArc
 50
71.80512766123428
 51
90.0
  0
ARC
  5
27F
330
1F
100
AcDbEntity
  8
0
 62
     3
100
AcDbCircle
 10
-72.5333263493858
 20
171.1586587157015
 30
0.0
 40
9.999999999999984
100
AcDbArc
 50
270.0
 51
288.194872338767
  0
LINE
  5
280
330
1F
100
AcDbEntity
  8
0
 62
     3
100
AcDbLine
 10
-170.4108273501871
 20
-133.9422304429777
 30
0.0
 11
-170.4108273501871
 21
-118.9422304429777
 31
0.0
  0
LINE
  5
281
330
1F
100
AcDbEntity
  8
0
 62
     3
100
AcDbLine
 10
-165.4108273501863
 20
-68.94223044297797
 30
0.0
 11
20.58917264981341
 21
-68.94223044297797
 31
0.0
  0
LINE
  5
282
330
1F
100
AcDbEntity
  8
0
 62
     3
100
AcDbLine
 10
-165.4108273501863
 20
-68.94223044297782
 30
0.0
 11
-165.4108273501863
 21
-118.9422304429777
 31
0.0
  0
LINE
  5
283
330
1F
100
AcDbEntity
  8
0
 62
     3
100
AcDbLine
 10
40.5891726498119
 20
-118.9422304429777
 30
0.0
 11
40.5891726498119
 21
-70.44223044297797
 31
0.0
  0
LINE
  5
284
330
1F
100
AcDbEntity
  8
0
 62
     3
100
AcDbLine
 10
-165.4108273501855
 20
317.1586587157012
 30
0.0
 11
-165.4108273501855
 21
165.1586587157015
 31
0.0
  0
LINE
  5
285
330
1F
100
AcDbEntity
  8
0
 62
     3
100
AcDbLine
 10
-165.4108273501851
 20
166.1586587157027
 30
0.0
 11
37.58917264981361
 21
166.1586587157027
 31
0.0
  0
LINE
  5
286
330
1F
100
AcDbEntity
  8
0
 62
     3
100
AcDbLine
 10
-165.4108273501851
 20
316.1586587157018
 30
0.0
 11
37.58917264981361
 21
316.1586587157018
 31
0.0
  0
LINE
  5
287
330
1F
100
AcDbEntity
  8
0
 62
     3
100
AcDbLine
 10
-125.4108273501848
 20
316.1586587157018
 30
0.0
 11
-125.4108273501848
 21
315.2822369128003
 31
0.0
  0
LINE
  5
288
330
1F
100
AcDbEntity
  8
0
 62
     3
100
AcDbLine
 10
-125.4108273501848
 20
166.1586587157027
 30
0.0
 11
-125.4108273501848
 21
167.0350805186025
 31
0.0
  0
LINE
  5
289
330
1F
100
AcDbEntity
  8
0
 62
     3
100
AcDbLine
 10
40.58917264981281
 20
303.6586587157012
 30
0.0
 11
40.58917264981281
 21
178.6586587157015
 31
0.0
  0
LINE
  5
28A
330
1F
100
AcDbEntity
  8
0
 62
     3
100
AcDbLine
 10
-120.5118478646184
 20
170.1586587157027
 30
0.0
 11
32.58917264981359
 21
170.1586587157027
 31
0.0
  0
LINE
  5
28B
330
1F
100
AcDbEntity
  8
0
 62
     3
100
AcDbLine
 10
40.5891726498119
 20
-70.44223044297797
 30
0.0
 11
24.15988686408485
 21
-70.44223044297797
 31
0.0
  0
LINE
  5
28C
330
1F
100
AcDbEntity
  8
0
 62
     3
100
AcDbLine
 10
37.58917264981281
 20
-133.9422304429777
 30
0.0
 11
37.58917264981281
 21
-73.44223044297797
 31
0.0
  0
LINE
  5
28D
330
1F
100
AcDbEntity
  8
0
 62
     3
100
AcDbLine
 10
37.58917264981281
 20
-118.9422304429777
 30
0.0
 11
40.5891726498119
 21
-118.9422304429777
 31
0.0
  0
ARC
  5
28E
330
1F
100
AcDbEntity
  8
0
 62
     3
100
AcDbCircle
 10
24.15988686408485
 20
-65.44223044297797
 30
0.0
 40
4.999999999999992
100
AcDbArc
 50
224.4270040008055
 51
270.0
  0
ARC
  5
28F
330
1F
100
AcDbEntity
  8
0
 62
     3
100
AcDbCircle
 10
40.58917264981281
 20
-73.44223044297797
 30
0.0
 40
2.999999999999995
100
AcDbArc
 50
90.0
 51
180.0
  0
LINE
  5
290
330
1F
100
AcDbEntity
  8
0
 62
     3
100
AcDbLine
 10
-125.4108273501862
 20
-68.94223044297797
 30
0.0
 11
-125.4108273501862
 21
-90.09422981943311
 31
0.0
  0
LINE
  5
291
330
1F
100
AcDbEntity
  8
0
 62
     3
100
AcDbLine
 10
-116.6286879320675
 20
-100.0197935617653
 30
0.0
 11
28.80703323169409
 21
-117.8646673241901
 31
0.0
  0
ARC
  5
292
330
1F
100
AcDbEntity
  8
0
 62
     3
100
AcDbCircle
 10
-115.4108273501863
 20
-90.09422981943311
 30
0.0
 40
9.999999999999984
100
AcDbArc
 50
180.0
 51
263.0048077027419
  0
ARC
  5
293
330
1F
100
AcDbEntity
  8
0
 62
     3
100
AcDbCircle
 10
27.58917264981284
 20
-127.7902310665223
 30
0.0
 40
9.999999999999984
100
AcDbArc
 50
0.0
 51
83.00480770274194
  0
LINE
  5
294
330
1F
100
AcDbEntity
  8
0
 62
     3
100
AcDbLine
 10
20.58917264981432
 20
205.1664051238604
 30
0.0
 11
20.58917264981432
 21
277.1509123075424
 31
0.0
  0
LINE
  5
295
330
1F
100
AcDbEntity
  8
0
 62
     3
100
AcDbLine
 10
6.614168435951427
 20
292.1158507851441
 30
0.0
 11
-111.4358231363226
 21
300.2014666462586
 31
0.0
  0
LINE
  5
296
330
1F
100
AcDbEntity
  8
0
 62
     3
100
AcDbLine
 10
-111.4358231363226
 20
182.1158507851443
 30
0.0
 11
6.614168435951427
 21
190.2014666462589
 31
0.0
  0
LINE
  5
297
330
1F
100
AcDbEntity
  8
0
 62
     3
100
AcDbLine
 10
-125.4108273501855
 20
167.1509123075427
 30
0.0
 11
-125.4108273501848
 21
166.1586587157027
 31
0.0
  0
LINE
  5
298
330
1F
100
AcDbEntity
  8
0
 62
     3
100
AcDbLine
 10
-125.4108273501855
 20
315.1664051238602
 30
0.0
 11
-125.4108273501848
 21
315.2822369128003
 31
0.0
  0
ARC
  5
299
330
1F
100
AcDbEntity
  8
0
 62
     3
100
AcDbCircle
 10
5.589172649814344
 20
277.1509123075424
 30
0.0
 40
14.99999999999998
100
AcDbArc
 50
0.0
 51
86.08175113593254
  0
ARC
  5
29A
330
1F
100
AcDbEntity
  8
0
 62
     3
100
AcDbCircle
 10
5.589172649814344
 20
205.1664051238604
 30
0.0
 40
14.99999999999998
100
AcDbArc
 50
273.9182488640673
 51
360.0
  0
ARC
  5
29B
330
1F
100
AcDbEntity
  8
0
 62
     3
100
AcDbCircle
 10
-110.4108273501855
 20
315.1664051238602
 30
0.0
 40
14.99999999999998
100
AcDbArc
 50
180.0
 51
266.0817511359326
  0
ARC
  5
29C
330
1F
100
AcDbEntity
  8
0
 62
     3
100
AcDbCircle
 10
-110.4108273501855
 20
167.1509123075427
 30
0.0
 40
14.99999999999998
100
AcDbArc
 50
93.91824886406737
 51
180.0
  0
ARC
  5
29D
330
1F
100
AcDbEntity
  8
0
 62
     3
100
AcDbCircle
 10
-120.5118478646184
 20
165.1586587157027
 30
0.0
 40
4.999999999999992
100
AcDbArc
 50
90.0
 51
168.4630409671846
  0
ARC
  5
29E
330
1F
100
AcDbEntity
  8
0
 62
     3
100
AcDbCircle
 10
-120.5118478646184
 20
317.1586587157018
 30
0.0
 40
4.999999999999992
100
AcDbArc
 50
191.5369590328154
 51
270.0
  0
LINE
  5
29F
330
1F
100
AcDbEntity
  8
0
 62
     3
100
AcDbLine
 10
-120.5118478646184
 20
312.1586587157019
 30
0.0
 11
32.58917264981359
 21
312.1586587157019
 31
0.0
  0
LINE
  5
2A0
330
1F
100
AcDbEntity
  8
0
 62
     3
100
AcDbLine
 10
37.58917264981361
 20
254.1586587157014
 30
0.0
 11
37.58917264981361
 21
316.1586587157018
 31
0.0
  0
LINE
  5
2A1
330
1F
100
AcDbEntity
  8
0
 62
     3
100
AcDbLine
 10
37.58917264981361
 20
228.1586587157015
 30
0.0
 11
37.58917264981361
 21
166.1586587157027
 31
0.0
  0
ARC
  5
2A2
330
1F
100
AcDbEntity
  8
0
 62
     3
100
AcDbCircle
 10
40.58917264981361
 20
254.1586587157014
 30
0.0
 40
2.999999999999995
100
AcDbArc
 50
180.0
 51
270.0
  0
ARC
  5
2A3
330
1F
100
AcDbEntity
  8
0
 62
     3
100
AcDbCircle
 10
40.58917264981361
 20
228.1586587157015
 30
0.0
 40
2.999999999999995
100
AcDbArc
 50
90.0
 51
180.0
  0
ARC
  5
2A4
330
1F
100
AcDbEntity
  8
0
 62
     3
100
AcDbCircle
 10
40.58917264981361
 20
175.6586587157015
 30
0.0
 40
2.999999999999995
100
AcDbArc
 50
90.0
 51
180.0
  0
ARC
  5
2A5
330
1F
100
AcDbEntity
  8
0
 62
     3
100
AcDbCircle
 10
40.58917264981361
 20
306.6586587157012
 30
0.0
 40
2.999999999999995
100
AcDbArc
 50
180.0
 51
270.0
  0
ARC
  5
2A6
330
1F
100
AcDbEntity
  8
0
 62
     3
100
AcDbCircle
 10
32.58917264981361
 20
175.1586587157027
 30
0.0
 40
4.999999999999992
100
AcDbArc
 50
270.0
 51
360.0
  0
ARC
  5
2A7
330
1F
100
AcDbEntity
  8
0
 62
     3
100
AcDbCircle
 10
32.58917264981361
 20
307.1586587157019
 30
0.0
 40
4.999999999999992
100
AcDbArc
 50
0.0
 51
90.0
  0
LINE
  5
2A8
330
1F
100
AcDbEntity
  8
0
 62
     3
100
AcDbLine
 10
100.589172649813
 20
-78.94223044297796
 30
0.0
 11
100.589172649813
 21
-120.9422304429779
 31
0.0
  0
LINE
  5
2A9
330
1F
100
AcDbEntity
  8
0
 62
     3
100
AcDbLine
 10
97.58917264981298
 20
-73.94223044297797
 30
0.0
 11
97.58917264981298
 21
-126.9422304429779
 31
0.0
  0
ARC
  5
2AA
330
1F
100
AcDbEntity
  8
0
 62
     3
100
AcDbCircle
 10
100.589172649813
 20
-75.94223044297796
 30
0.0
 40
2.999999999999996
100
AcDbArc
 50
180.0
 51
270.0
  0
ARC
  5
2AB
330
1F
100
AcDbEntity
  8
0
 62
     3
100
AcDbCircle
 10
100.589172649813
 20
-123.9422304429779
 30
0.0
 40
2.999999999999996
100
AcDbArc
 50
90.0
 51
180.0
  0
LINE
  5
2AC
330
1F
100
AcDbEntity
  8
0
 62
     3
100
AcDbLine
 10
40.5891726498119
 20
-118.4422304429779
 30
0.0
 11
75.58917264981309
 21
-118.4422304429779
 31
0.0
  0
LINE
  5
2AD
330
1F
100
AcDbEntity
  8
0
 62
     3
100
AcDbLine
 10
94.58917264981298
 20
-70.94223044297797
 30
0.0
 11
40.5891726498119
 21
-70.94223044297797
 31
0.0
  0
LINE
  5
2AE
330
1F
100
AcDbEntity
  8
0
 62
     3
100
AcDbLine
 10
78.58917264981184
 20
-115.4422304429779
 30
0.0
 11
94.58917264981298
 21
-115.4422304429779
 31
0.0
  0
LINE
  5
2AF
330
1F
100
AcDbEntity
  8
0
 62
     3
100
AcDbLine
 10
94.58917264981298
 20
-129.9422304429778
 30
0.0
 11
83.58917264981309
 21
-129.9422304429778
 31
0.0
  0
LINE
  5
2B0
330
1F
100
AcDbEntity
  8
0
 62
     3
100
AcDbLine
 10
80.58917264981309
 20
-126.9422304429779
 30
0.0
 11
80.58917264981309
 21
-115.4422304429779
 31
0.0
  0
ARC
  5
2B1
330
1F
100
AcDbEntity
  8
0
 62
     3
100
AcDbCircle
 10
78.58917264981184
 20
-118.4422304429779
 30
0.0
 40
2.999999999999996
100
AcDbArc
 50
90.0
 51
180.0
  0
ARC
  5
2B2
330
1F
100
AcDbEntity
  8
0
 62
     3
100
AcDbCircle
 10
83.58917264981309
 20
-126.9422304429779
 30
0.0
 40
2.999999999999996
100
AcDbArc
 50
180.0
 51
270.0
  0
ARC
  5
2B3
330
1F
100
AcDbEntity
  8
0
 62
     3
100
AcDbCircle
 10
94.58917264981298
 20
-126.9422304429779
 30
0.0
 40
2.999999999999996
100
AcDbArc
 50
270.0
 51
360.0
  0
ARC
  5
2B4
330
1F
100
AcDbEntity
  8
0
 62
     3
100
AcDbCircle
 10
94.58917264981298
 20
-73.94223044297797
 30
0.0
 40
2.999999999999996
100
AcDbArc
 50
0.0
 51
90.0
  0
ARC
  5
2B5
330
1F
100
AcDbEntity
  8
0
 62
     3
100
AcDbCircle
 10
94.58917264981298
 20
-112.4422304429779
 30
0.0
 40
2.999999999999996
100
AcDbArc
 50
270.0
 51
360.0
  0
LINE
  5
2B6
330
1F
100
AcDbEntity
  8
0
 62
     3
100
AcDbLine
 10
56.58917264981187
 20
-118.4422304429779
 30
0.0
 11
56.58917264981187
 21
-75.94223044297796
 31
0.0
  0
LINE
  5
2B7
330
1F
100
AcDbEntity
  8
0
 62
     3
100
AcDbLine
 10
54.58917264981187
 20
-80.94223044297796
 30
0.0
 11
42.5891726498119
 21
-80.94223044297796
 31
0.0
  0
ARC
  5
2B8
330
1F
100
AcDbEntity
  8
0
 62
     3
100
AcDbCircle
 10
100.5891726498142
 20
217.1586587157015
 30
0.0
 40
2.999999999999996
100
AcDbArc
 50
90.0
 51
180.0
  0
ARC
  5
2B9
330
1F
100
AcDbEntity
  8
0
 62
     3
100
AcDbCircle
 10
100.5891726498142
 20
265.1586587157013
 30
0.0
 40
2.999999999999996
100
AcDbArc
 50
180.0
 51
270.0
  0
LINE
  5
2BA
330
1F
100
AcDbEntity
  8
0
 62
     3
100
AcDbLine
 10
100.5891726498142
 20
262.1586587157014
 30
0.0
 11
100.5891726498142
 21
220.1586587157015
 31
0.0
  0
LINE
  5
2BB
330
1F
100
AcDbEntity
  8
0
 62
     3
100
AcDbLine
 10
40.58917264981281
 20
301.1586587157012
 30
0.0
 11
53.58917264981307
 21
301.1586587157012
 31
0.0
  0
LINE
  5
2BC
330
1F
100
AcDbEntity
  8
0
 62
     3
100
AcDbLine
 10
40.58917264981281
 20
181.1586587157015
 30
0.0
 11
53.58917264981307
 21
181.1586587157015
 31
0.0
  0
LINE
  5
2BD
330
1F
100
AcDbEntity
  8
0
 62
     3
100
AcDbLine
 10
61.58917264981307
 20
276.1586587157013
 30
0.0
 11
92.58917264981423
 21
276.1586587157013
 31
0.0
  0
LINE
  5
2BE
330
1F
100
AcDbEntity
  8
0
 62
     3
100
AcDbLine
 10
92.58917264981423
 20
206.1586587157015
 30
0.0
 11
61.58917264981307
 21
206.1586587157015
 31
0.0
  0
LINE
  5
2BF
330
1F
100
AcDbEntity
  8
0
 62
     3
100
AcDbLine
 10
56.58917264981307
 20
184.1586587157015
 30
0.0
 11
56.58917264981307
 21
226.5990229955531
 31
0.0
  0
LINE
  5
2C0
330
1F
100
AcDbEntity
  8
0
 62
     3
100
AcDbLine
 10
56.58917264981307
 20
298.1586587157012
 30
0.0
 11
56.58917264981307
 21
255.7182944358498
 31
0.0
  0
LINE
  5
2C1
330
1F
100
AcDbEntity
  8
0
 62
     3
100
AcDbLine
 10
97.58917264981417
 20
271.1586587157013
 30
0.0
 11
97.58917264981417
 21
211.1586587157015
 31
0.0
  0
ARC
  5
2C2
330
1F
100
AcDbEntity
  8
0
 62
     3
100
AcDbCircle
 10
61.58917264981307
 20
281.1586587157013
 30
0.0
 40
4.999999999999992
100
AcDbArc
 50
180.0
 51
270.0
  0
ARC
  5
2C3
330
1F
100
AcDbEntity
  8
0
 62
     3
100
AcDbCircle
 10
61.58917264981307
 20
201.1586587157015
 30
0.0
 40
4.999999999999992
100
AcDbArc
 50
90.0
 51
180.0
  0
ARC
  5
2C4
330
1F
100
AcDbEntity
  8
0
 62
     3
100
AcDbCircle
 10
92.58917264981423
 20
271.1586587157013
 30
0.0
 40
4.999999999999992
100
AcDbArc
 50
0.0
 51
90.0
  0
ARC
  5
2C5
330
1F
100
AcDbEntity
  8
0
 62
     3
100
AcDbCircle
 10
92.58917264981423
 20
211.1586587157015
 30
0.0
 40
4.999999999999992
100
AcDbArc
 50
270.0
 51
360.0
  0
ARC
  5
2C6
330
1F
100
AcDbEntity
  8
0
 62
     3
100
AcDbCircle
 10
53.58917264981307
 20
298.1586587157012
 30
0.0
 40
2.999999999999996
100
AcDbArc
 50
0.0
 51
90.0
  0
ARC
  5
2C7
330
1F
100
AcDbEntity
  8
0
 62
     3
100
AcDbCircle
 10
53.58917264981307
 20
184.1586587157015
 30
0.0
 40
2.999999999999996
100
AcDbArc
 50
270.0
 51
360.0
  0
ARC
  5
2C8
330
1F
100
AcDbEntity
  8
0
 62
     3
100
AcDbCircle
 10
59.58917264981307
 20
255.7182944358498
 30
0.0
 40
2.999999999999995
100
AcDbArc
 50
180.0
 51
270.0
  0
ARC
  5
2C9
330
1F
100
AcDbEntity
  8
0
 62
     3
100
AcDbCircle
 10
59.58917264981307
 20
226.5990229955531
 30
0.0
 40
2.999999999999995
100
AcDbArc
 50
90.0
 51
180.0
  0
LINE
  5
2CA
330
1F
100
AcDbEntity
  8
0
 62
     3
100
AcDbLine
 10
-182.410827350185
 20
-118.9422304429778
 30
0.0
 11
-182.410827350185
 21
-67.94223044297782
 31
0.0
  0
LINE
  5
2CB
330
1F
100
AcDbEntity
  8
0
 62
     3
100
AcDbLine
 10
-182.410827350185
 20
-67.94223044297782
 30
0.0
 11
-166.4108273501863
 21
-67.94223044297782
 31
0.0
  0
LINE
  5
2CC
330
1F
100
AcDbEntity
  8
0
 62
     3
100
AcDbLine
 10
-166.4108273501863
 20
-67.94223044297782
 30
0.0
 11
-165.4108273501863
 21
-68.94223044297782
 31
0.0
  0
LINE
  5
2CD
330
1F
100
AcDbEntity
  8
0
 62
     3
100
AcDbLine
 10
-182.4108273501838
 20
318.1586587157012
 30
0.0
 11
-182.4108273501838
 21
164.1586587157015
 31
0.0
  0
LINE
  5
2CE
330
1F
100
AcDbEntity
  8
0
 62
     3
100
AcDbLine
 10
-182.4108273501838
 20
164.1586587157015
 30
0.0
 11
-166.4108273501855
 21
164.1586587157015
 31
0.0
  0
LINE
  5
2CF
330
1F
100
AcDbEntity
  8
0
 62
     3
100
AcDbLine
 10
-182.4108273501838
 20
318.1586587157012
 30
0.0
 11
-166.4108273501855
 21
318.1586587157012
 31
0.0
  0
LINE
  5
2D0
330
1F
100
AcDbEntity
  8
0
 62
     3
100
AcDbLine
 10
-165.4108273501855
 20
165.1586587157015
 30
0.0
 11
-166.4108273501855
 21
164.1586587157015
 31
0.0
  0
LINE
  5
2D1
330
1F
100
AcDbEntity
  8
0
 62
     3
100
AcDbLine
 10
-165.4108273501855
 20
317.1586587157012
 30
0.0
 11
-166.4108273501855
 21
318.1586587157012
 31
0.0
  0
LINE
  5
2D2
330
1F
100
AcDbEntity
  8
0
 62
     3
100
AcDbLine
 10
-169.9108273501871
 20
-133.9422304429777
 30
0.0
 11
-169.9108273501871
 21
-145.9422304429777
 31
0.0
  0
LINE
  5
2D3
330
1F
100
AcDbEntity
  8
0
 62
     3
100
AcDbLine
 10
37.08917264981281
 20
-133.9422304429777
 30
0.0
 11
37.08917264981281
 21
-145.9422304429777
 31
0.0
  0
LINE
  5
2D4
330
1F
100
AcDbEntity
  8
0
 62
     3
100
AcDbLine
 10
37.08917264981281
 20
-145.9422304429777
 30
0.0
 11
-169.9108273501871
 21
-145.9422304429777
 31
0.0
  0
LINE
  5
2D5
330
1F
100
AcDbEntity
  8
0
 62
     3
100
AcDbLine
 10
174.0891726498157
 20
-108.9422304429779
 30
0.0
 11
174.0891726498157
 21
-90.94223044297794
 31
0.0
  0
LINE
  5
2D6
330
1F
100
AcDbEntity
  8
0
 62
     3
100
AcDbLine
 10
149.0891726498194
 20
231.6586587157015
 30
0.0
 11
173.5891726498171
 21
231.6586587157015
 31
0.0
  0
LINE
  5
2D7
330
1F
100
AcDbEntity
  8
0
 62
     3
100
AcDbLine
 10
174.089172649817
 20
232.1586587157015
 30
0.0
 11
174.089172649817
 21
250.1586587157014
 31
0.0
  0
LINE
  5
2D8
330
1F
100
AcDbEntity
  8
0
 62
     3
100
AcDbLine
 10
173.5891726498171
 20
250.6586587157014
 30
0.0
 11
149.0891726498194
 21
250.6586587157014
 31
0.0
  0
LINE
  5
2D9
330
1F
100
AcDbEntity
  8
0
 62
     3
100
AcDbLine
 10
179.0891726498199
 20
-108.9422304429779
 30
0.0
 11
179.0891726498199
 21
-90.94223044297794
 31
0.0
  0
LINE
  5
2DA
330
1F
100
AcDbEntity
  8
0
 62
     3
100
AcDbLine
 10
184.5891726498156
 20
-90.94223044297794
 30
0.0
 11
184.5891726498156
 21
-108.9422304429779
 31
0.0
  0
LINE
  5
2DB
330
1F
100
AcDbEntity
  8
0
 62
     3
100
AcDbLine
 10
197.5891726498157
 20
-91.44223044297794
 30
0.0
 11
197.5891726498157
 21
-108.4422304429777
 31
0.0
  0
LINE
  5
2DC
330
1F
100
AcDbEntity
  8
0
 62
     3
100
AcDbLine
 10
197.5891726498157
 20
-108.4422304429777
 30
0.0
 11
197.0891726498157
 21
-108.9422304429779
 31
0.0
  0
LINE
  5
2DD
330
1F
100
AcDbEntity
  8
0
 62
     3
100
AcDbLine
 10
197.5891726498157
 20
-91.44223044297794
 30
0.0
 11
197.0891726498156
 21
-90.94223044297794
 31
0.0
  0
LINE
  5
2DE
330
1F
100
AcDbEntity
  8
0
 62
     3
100
AcDbLine
 10
184.5891726498156
 20
-90.94223044297794
 30
0.0
 11
197.0891726498156
 21
-90.94223044297794
 31
0.0
  0
LINE
  5
2DF
330
1F
100
AcDbEntity
  8
0
 62
     3
100
AcDbLine
 10
184.5891726498156
 20
-108.9422304429779
 30
0.0
 11
197.0891726498157
 21
-108.9422304429779
 31
0.0
  0
LINE
  5
2E0
330
1F
100
AcDbEntity
  8
0
 62
     3
100
AcDbLine
 10
197.0891726498156
 20
-90.94223044297794
 30
0.0
 11
197.0891726498157
 21
-108.9422304429779
 31
0.0
  0
LINE
  5
2E1
330
1F
100
AcDbEntity
  8
0
 62
     3
100
AcDbLine
 10
179.0891726498198
 20
-92.69223044297794
 30
0.0
 11
184.5891726498156
 21
-92.69223044297794
 31
0.0
  0
LINE
  5
2E2
330
1F
100
AcDbEntity
  8
0
 62
     3
100
AcDbLine
 10
179.0891726498198
 20
-107.1922304429779
 30
0.0
 11
184.5891726498156
 21
-107.1922304429779
 31
0.0
  0
LINE
  5
2E3
330
1F
100
AcDbEntity
  8
0
 62
     3
100
AcDbLine
 10
179.0891726498199
 20
-108.9422304429779
 30
0.0
 11
174.0891726498157
 21
-108.9422304429779
 31
0.0
  0
LINE
  5
2E4
330
1F
100
AcDbEntity
  8
0
 62
     3
100
AcDbLine
 10
179.0891726498199
 20
-90.94223044297794
 30
0.0
 11
174.0891726498158
 21
-90.94223044297794
 31
0.0
  0
LINE
  5
2E5
330
1F
100
AcDbEntity
  8
0
 62
     3
100
AcDbLine
 10
149.0891726498182
 20
-110.4422304429779
 30
0.0
 11
149.0891726498182
 21
-89.44223044297794
 31
0.0
  0
LINE
  5
2E6
330
1F
100
AcDbEntity
  8
0
 62
     3
100
AcDbLine
 10
173.4464422458092
 20
-110.4422304429779
 30
0.0
 11
149.0891726498182
 21
-110.4422304429779
 31
0.0
  0
LINE
  5
2E7
330
1F
100
AcDbEntity
  8
0
 62
     3
100
AcDbLine
 10
172.5891726498158
 20
-89.44223044297794
 30
0.0
 11
149.0891726498182
 21
-89.44223044297794
 31
0.0
  0
LINE
  5
2E8
330
1F
100
AcDbEntity
  8
0
 62
     3
100
AcDbLine
 10
149.0891726498182
 20
-110.4422304429779
 30
0.0
 11
146.5891726498194
 21
-110.9422304429779
 31
0.0
  0
LINE
  5
2E9
330
1F
100
AcDbEntity
  8
0
 62
     3
100
AcDbLine
 10
146.5891726498194
 20
-110.9422304429779
 30
0.0
 11
146.5891726498194
 21
-88.94223044297794
 31
0.0
  0
LINE
  5
2EA
330
1F
100
AcDbEntity
  8
0
 62
     3
100
AcDbLine
 10
146.5891726498194
 20
-88.94223044297794
 30
0.0
 11
149.0891726498182
 21
-89.44223044297794
 31
0.0
  0
LINE
  5
2EB
330
1F
100
AcDbEntity
  8
0
 62
     3
100
AcDbLine
 10
117.3891726498196
 20
-110.9422304429779
 30
0.0
 11
117.3891726498196
 21
-88.94223044297794
 31
0.0
  0
LINE
  5
2EC
330
1F
100
AcDbEntity
  8
0
 62
     3
100
AcDbLine
 10
116.7891726498196
 20
-88.94223044297794
 30
0.0
 11
116.7891726498196
 21
-110.9422304429779
 31
0.0
  0
ARC
  5
2ED
330
1F
100
AcDbEntity
  8
0
 62
     3
100
AcDbCircle
 10
117.0891726498184
 20
-88.94223044297794
 30
0.0
 40
0.3000000000000109
100
AcDbArc
 50
179.9999999997449
 51
360.0
  0
ARC
  5
2EE
330
1F
100
AcDbEntity
  8
0
 62
     3
100
AcDbCircle
 10
117.0891726498184
 20
-110.9422304429779
 30
0.0
 40
0.2999999999999825
100
AcDbArc
 50
0.0
 51
179.9999999997449
  0
LINE
  5
2EF
330
1F
100
AcDbEntity
  8
0
 62
     3
100
AcDbLine
 10
111.8891726498196
 20
-110.9422304429779
 30
0.0
 11
111.8891726498196
 21
-88.94223044297794
 31
0.0
  0
LINE
  5
2F0
330
1F
100
AcDbEntity
  8
0
 62
     3
100
AcDbLine
 10
111.2891726498196
 20
-88.94223044297794
 30
0.0
 11
111.2891726498196
 21
-110.9422304429779
 31
0.0
  0
ARC
  5
2F1
330
1F
100
AcDbEntity
  8
0
 62
     3
100
AcDbCircle
 10
111.5891726498184
 20
-88.94223044297794
 30
0.0
 40
0.3000000000000109
100
AcDbArc
 50
179.9999999997449
 51
360.0
  0
ARC
  5
2F2
330
1F
100
AcDbEntity
  8
0
 62
     3
100
AcDbCircle
 10
111.5891726498184
 20
-110.9422304429779
 30
0.0
 40
0.2999999999999825
100
AcDbArc
 50
0.0
 51
179.9999999997449
  0
LINE
  5
2F3
330
1F
100
AcDbEntity
  8
0
 62
     3
100
AcDbLine
 10
106.3891726498196
 20
-110.9422304429779
 30
0.0
 11
106.3891726498196
 21
-88.94223044297794
 31
0.0
  0
LINE
  5
2F4
330
1F
100
AcDbEntity
  8
0
 62
     3
100
AcDbLine
 10
105.7891726498196
 20
-88.94223044297794
 30
0.0
 11
105.7891726498196
 21
-110.9422304429779
 31
0.0
  0
ARC
  5
2F5
330
1F
100
AcDbEntity
  8
0
 62
     3
100
AcDbCircle
 10
106.0891726498184
 20
-88.94223044297794
 30
0.0
 40
0.3000000000000109
100
AcDbArc
 50
179.9999999997449
 51
360.0
  0
ARC
  5
2F6
330
1F
100
AcDbEntity
  8
0
 62
     3
100
AcDbCircle
 10
106.0891726498184
 20
-110.9422304429779
 30
0.0
 40
0.2999999999999825
100
AcDbArc
 50
0.0
 51
179.9999999997449
  0
LINE
  5
2F7
330
1F
100
AcDbEntity
  8
0
 62
     3
100
AcDbLine
 10
105.7891726498196
 20
-110.9422304429779
 30
0.0
 11
100.589172649813
 21
-110.9422304429779
 31
0.0
  0
LINE
  5
2F8
330
1F
100
AcDbEntity
  8
0
 62
     3
100
AcDbLine
 10
111.2891726498184
 20
-110.9422304429779
 30
0.0
 11
106.3891726498196
 21
-110.9422304429779
 31
0.0
  0
LINE
  5
2F9
330
1F
100
AcDbEntity
  8
0
 62
     3
100
AcDbLine
 10
146.5891726498194
 20
-110.9422304429779
 30
0.0
 11
117.3891726498184
 21
-110.9422304429779
 31
0.0
  0
LINE
  5
2FA
330
1F
100
AcDbEntity
  8
0
 62
     3
100
AcDbLine
 10
116.7891726498184
 20
-110.9422304429779
 30
0.0
 11
111.8891726498196
 21
-110.9422304429779
 31
0.0
  0
LINE
  5
2FB
330
1F
100
AcDbEntity
  8
0
 62
     3
100
AcDbLine
 10
146.5891726498194
 20
-88.94223044297794
 30
0.0
 11
117.3891726498196
 21
-88.94223044297794
 31
0.0
  0
LINE
  5
2FC
330
1F
100
AcDbEntity
  8
0
 62
     3
100
AcDbLine
 10
105.7891726498183
 20
-88.94223044297794
 30
0.0
 11
100.589172649813
 21
-88.94223044297794
 31
0.0
  0
LINE
  5
2FD
330
1F
100
AcDbEntity
  8
0
 62
     3
100
AcDbLine
 10
116.7891726498183
 20
-88.94223044297794
 30
0.0
 11
111.8891726498196
 21
-88.94223044297794
 31
0.0
  0
LINE
  5
2FE
330
1F
100
AcDbEntity
  8
0
 62
     3
100
AcDbLine
 10
111.2891726498183
 20
-88.94223044297794
 30
0.0
 11
106.3891726498183
 21
-88.94223044297794
 31
0.0
  0
LINE
  5
2FF
330
1F
100
AcDbEntity
  8
0
 62
     3
100
AcDbLine
 10
149.0891726498194
 20
231.6586587157015
 30
0.0
 11
149.0891726498194
 21
250.6586587157014
 31
0.0
  0
LINE
  5
300
330
1F
100
AcDbEntity
  8
0
 62
     3
100
AcDbLine
 10
146.5891726498206
 20
230.1586587157015
 30
0.0
 11
146.5891726498206
 21
252.1586587157014
 31
0.0
  0
LINE
  5
301
330
1F
100
AcDbEntity
  8
0
 62
     3
100
AcDbLine
 10
117.3891726498207
 20
230.1586587157015
 30
0.0
 11
117.3891726498207
 21
252.1586587157014
 31
0.0
  0
LINE
  5
302
330
1F
100
AcDbEntity
  8
0
 62
     3
100
AcDbLine
 10
116.7891726498208
 20
252.1586587157014
 30
0.0
 11
116.7891726498208
 21
230.1586587157015
 31
0.0
  0
ARC
  5
303
330
1F
100
AcDbEntity
  8
0
 62
     3
100
AcDbCircle
 10
117.0891726498195
 20
252.1586587157014
 30
0.0
 40
0.3000000000000109
100
AcDbArc
 50
179.9999999997449
 51
360.0
  0
ARC
  5
304
330
1F
100
AcDbEntity
  8
0
 62
     3
100
AcDbCircle
 10
117.0891726498195
 20
230.1586587157015
 30
0.0
 40
0.2999999999999825
100
AcDbArc
 50
0.0
 51
179.9999999997449
  0
LINE
  5
305
330
1F
100
AcDbEntity
  8
0
 62
     3
100
AcDbLine
 10
111.8891726498207
 20
230.1586587157015
 30
0.0
 11
111.8891726498207
 21
252.1586587157014
 31
0.0
  0
LINE
  5
306
330
1F
100
AcDbEntity
  8
0
 62
     3
100
AcDbLine
 10
111.2891726498208
 20
252.1586587157014
 30
0.0
 11
111.2891726498208
 21
230.1586587157015
 31
0.0
  0
ARC
  5
307
330
1F
100
AcDbEntity
  8
0
 62
     3
100
AcDbCircle
 10
111.5891726498195
 20
252.1586587157014
 30
0.0
 40
0.3000000000000109
100
AcDbArc
 50
179.9999999997449
 51
360.0
  0
ARC
  5
308
330
1F
100
AcDbEntity
  8
0
 62
     3
100
AcDbCircle
 10
111.5891726498195
 20
230.1586587157015
 30
0.0
 40
0.2999999999999825
100
AcDbArc
 50
0.0
 51
179.9999999997449
  0
LINE
  5
309
330
1F
100
AcDbEntity
  8
0
 62
     3
100
AcDbLine
 10
106.3891726498207
 20
230.1586587157015
 30
0.0
 11
106.3891726498207
 21
252.1586587157014
 31
0.0
  0
LINE
  5
30A
330
1F
100
AcDbEntity
  8
0
 62
     3
100
AcDbLine
 10
105.7891726498208
 20
252.1586587157014
 30
0.0
 11
105.7891726498208
 21
230.1586587157015
 31
0.0
  0
ARC
  5
30B
330
1F
100
AcDbEntity
  8
0
 62
     3
100
AcDbCircle
 10
106.0891726498195
 20
252.1586587157014
 30
0.0
 40
0.3000000000000109
100
AcDbArc
 50
179.9999999997449
 51
360.0
  0
ARC
  5
30C
330
1F
100
AcDbEntity
  8
0
 62
     3
100
AcDbCircle
 10
106.0891726498195
 20
230.1586587157015
 30
0.0
 40
0.2999999999999825
100
AcDbArc
 50
0.0
 51
179.9999999997449
  0
LINE
  5
30D
330
1F
100
AcDbEntity
  8
0
 62
     3
100
AcDbLine
 10
105.7891726498208
 20
230.1586587157015
 30
0.0
 11
100.5891726498142
 21
230.1586587157015
 31
0.0
  0
LINE
  5
30E
330
1F
100
AcDbEntity
  8
0
 62
     3
100
AcDbLine
 10
111.2891726498196
 20
230.1586587157015
 30
0.0
 11
106.3891726498207
 21
230.1586587157015
 31
0.0
  0
LINE
  5
30F
330
1F
100
AcDbEntity
  8
0
 62
     3
100
AcDbLine
 10
146.5891726498206
 20
230.1586587157015
 30
0.0
 11
117.3891726498195
 21
230.1586587157015
 31
0.0
  0
LINE
  5
310
330
1F
100
AcDbEntity
  8
0
 62
     3
100
AcDbLine
 10
116.7891726498196
 20
230.1586587157015
 30
0.0
 11
111.8891726498207
 21
230.1586587157015
 31
0.0
  0
LINE
  5
311
330
1F
100
AcDbEntity
  8
0
 62
     3
100
AcDbLine
 10
146.5891726498206
 20
252.1586587157014
 30
0.0
 11
117.3891726498207
 21
252.1586587157014
 31
0.0
  0
LINE
  5
312
330
1F
100
AcDbEntity
  8
0
 62
     3
100
AcDbLine
 10
105.7891726498195
 20
252.1586587157014
 30
0.0
 11
100.5891726498142
 21
252.1586587157014
 31
0.0
  0
LINE
  5
313
330
1F
100
AcDbEntity
  8
0
 62
     3
100
AcDbLine
 10
116.7891726498195
 20
252.1586587157014
 30
0.0
 11
111.8891726498207
 21
252.1586587157014
 31
0.0
  0
LINE
  5
314
330
1F
100
AcDbEntity
  8
0
 62
     3
100
AcDbLine
 10
111.2891726498195
 20
252.1586587157014
 30
0.0
 11
106.3891726498195
 21
252.1586587157014
 31
0.0
  0
LINE
  5
315
330
1F
100
AcDbEntity
  8
0
 62
     3
100
AcDbLine
 10
149.0891726498194
 20
231.6586587157015
 30
0.0
 11
146.5891726498206
 21
230.1586587157015
 31
0.0
  0
LINE
  5
316
330
1F
100
AcDbEntity
  8
0
 62
     3
100
AcDbLine
 10
149.0891726498194
 20
250.6586587157014
 30
0.0
 11
146.5891726498206
 21
252.1586587157014
 31
0.0
  0
LINE
  5
317
330
1F
100
AcDbEntity
  8
0
 62
     3
100
AcDbLine
 10
179.0891726498211
 20
232.1586587157015
 30
0.0
 11
179.0891726498211
 21
250.1586587157014
 31
0.0
  0
LINE
  5
318
330
1F
100
AcDbEntity
  8
0
 62
     3
100
AcDbLine
 10
184.5891726498168
 20
250.1586587157014
 30
0.0
 11
184.5891726498168
 21
232.1586587157015
 31
0.0
  0
LINE
  5
319
330
1F
100
AcDbEntity
  8
0
 62
     3
100
AcDbLine
 10
197.5891726498169
 20
249.6586587157014
 30
0.0
 11
197.5891726498169
 21
232.6586587157017
 31
0.0
  0
LINE
  5
31A
330
1F
100
AcDbEntity
  8
0
 62
     3
100
AcDbLine
 10
197.5891726498169
 20
232.6586587157017
 30
0.0
 11
197.0891726498169
 21
232.1586587157015
 31
0.0
  0
LINE
  5
31B
330
1F
100
AcDbEntity
  8
0
 62
     3
100
AcDbLine
 10
197.5891726498169
 20
249.6586587157014
 30
0.0
 11
197.0891726498168
 21
250.1586587157014
 31
0.0
  0
LINE
  5
31C
330
1F
100
AcDbEntity
  8
0
 62
     3
100
AcDbLine
 10
184.5891726498168
 20
250.1586587157014
 30
0.0
 11
197.0891726498168
 21
250.1586587157014
 31
0.0
  0
LINE
  5
31D
330
1F
100
AcDbEntity
  8
0
 62
     3
100
AcDbLine
 10
184.5891726498168
 20
232.1586587157015
 30
0.0
 11
197.0891726498169
 21
232.1586587157015
 31
0.0
  0
LINE
  5
31E
330
1F
100
AcDbEntity
  8
0
 62
     3
100
AcDbLine
 10
197.0891726498168
 20
250.1586587157014
 30
0.0
 11
197.0891726498169
 21
232.1586587157015
 31
0.0
  0
LINE
  5
31F
330
1F
100
AcDbEntity
  8
0
 62
     3
100
AcDbLine
 10
179.089172649821
 20
248.4086587157014
 30
0.0
 11
184.5891726498168
 21
248.4086587157014
 31
0.0
  0
LINE
  5
320
330
1F
100
AcDbEntity
  8
0
 62
     3
100
AcDbLine
 10
179.089172649821
 20
233.9086587157015
 30
0.0
 11
184.5891726498168
 21
233.9086587157015
 31
0.0
  0
LINE
  5
321
330
1F
100
AcDbEntity
  8
0
 62
     3
100
AcDbLine
 10
179.0891726498211
 20
232.1586587157015
 30
0.0
 11
174.0891726498169
 21
232.1586587157015
 31
0.0
  0
LINE
  5
322
330
1F
100
AcDbEntity
  8
0
 62
     3
100
AcDbLine
 10
179.0891726498211
 20
250.1586587157014
 30
0.0
 11
174.089172649817
 21
250.1586587157014
 31
0.0
  0
ARC
  5
323
330
1F
100
AcDbEntity
  8
0
 62
     3
100
AcDbCircle
 10
54.58917264981187
 20
-82.94223044297794
 30
0.0
 40
1.999999999999997
100
AcDbArc
 50
0.0
 51
90.0
  0
ARC
  5
324
330
1F
100
AcDbEntity
  8
0
 62
     3
100
AcDbCircle
 10
58.58917264981187
 20
-75.94223044297796
 30
0.0
 40
1.999999999999997
100
AcDbArc
 50
90.0
 51
180.0
  0
LINE
  5
325
330
1F
100
AcDbEntity
  8
0
 62
     3
100
AcDbLine
 10
363.7249147563526
 20
-118.942230442978
 30
0.0
 11
363.7249147563526
 21
-133.9422304429779
 31
0.0
  0
LINE
  5
326
330
1F
100
AcDbEntity
  8
0
 62
     3
100
AcDbLine
 10
479.7249147563521
 20
-133.9422304429778
 30
0.0
 11
479.7249147563521
 21
-118.9422304429779
 31
0.0
  0
LINE
  5
327
330
1F
100
AcDbEntity
  8
0
 62
     3
100
AcDbLine
 10
394.6249147563525
 20
-118.942230442978
 30
0.0
 11
363.7249147563528
 21
-118.942230442978
 31
0.0
  0
LINE
  5
328
330
1F
100
AcDbEntity
  8
0
 62
     3
100
AcDbLine
 10
394.6249147563525
 20
-118.942230442978
 30
0.0
 11
399.1249147563525
 21
-123.442230442978
 31
0.0
  0
LINE
  5
329
330
1F
100
AcDbEntity
  8
0
 62
     3
100
AcDbLine
 10
448.8249147563522
 20
-118.942230442978
 30
0.0
 11
479.7249147563521
 21
-118.9422304429779
 31
0.0
  0
LINE
  5
32A
330
1F
100
AcDbEntity
  8
0
 62
     3
100
AcDbLine
 10
448.8249147563522
 20
-118.942230442978
 30
0.0
 11
444.3249147563522
 21
-123.442230442978
 31
0.0
  0
LINE
  5
32B
330
1F
100
AcDbEntity
  8
0
 62
     3
100
AcDbLine
 10
399.1249147563524
 20
-174.9422304429778
 30
0.0
 11
399.1249147563525
 21
-123.442230442978
 31
0.0
  0
LINE
  5
32C
330
1F
100
AcDbEntity
  8
0
 62
     3
100
AcDbLine
 10
399.1249147563524
 20
-174.9422304429778
 30
0.0
 11
401.1249147563524
 21
-176.9422304429778
 31
0.0
  0
LINE
  5
32D
330
1F
100
AcDbEntity
  8
0
 62
     3
100
AcDbLine
 10
442.3249147563522
 20
-176.9422304429778
 30
0.0
 11
401.1249147563524
 21
-176.9422304429778
 31
0.0
  0
LINE
  5
32E
330
1F
100
AcDbEntity
  8
0
 62
     3
100
AcDbLine
 10
440.1249147563522
 20
-176.9422304429778
 30
0.0
 11
444.1249147563522
 21
-172.9422304429776
 31
0.0
  0
LINE
  5
32F
330
1F
100
AcDbEntity
  8
0
 62
     3
100
AcDbLine
 10
442.3249147563522
 20
-176.9422304429778
 30
0.0
 11
444.3249147563522
 21
-174.9422304429778
 31
0.0
  0
LINE
  5
330
330
1F
100
AcDbEntity
  8
0
 62
     3
100
AcDbLine
 10
444.3249147563522
 20
-174.9422304429778
 30
0.0
 11
444.3249147563522
 21
-123.442230442978
 31
0.0
  0
LINE
  5
331
330
1F
100
AcDbEntity
  8
0
 62
     3
100
AcDbLine
 10
373.7249147563525
 20
-133.9422304429779
 30
0.0
 11
373.7249147563525
 21
-150.9422304429779
 31
0.0
  0
LINE
  5
332
330
1F
100
AcDbEntity
  8
0
 62
     3
100
AcDbLine
 10
469.7249147563521
 20
-133.9422304429779
 30
0.0
 11
469.7249147563521
 21
-150.9422304429778
 31
0.0
  0
LINE
  5
333
330
1F
100
AcDbEntity
  8
0
 62
     3
100
AcDbLine
 10
373.7249147563525
 20
-150.9422304429779
 30
0.0
 11
369.2249147563526
 21
-150.9422304429779
 31
0.0
  0
LINE
  5
334
330
1F
100
AcDbEntity
  8
0
 62
     3
100
AcDbLine
 10
469.7249147563521
 20
-150.9422304429778
 30
0.0
 11
474.2249147563521
 21
-150.9422304429778
 31
0.0
  0
LINE
  5
335
330
1F
100
AcDbEntity
  8
0
 62
     3
100
AcDbLine
 10
369.2249147563526
 20
-150.9422304429779
 30
0.0
 11
369.2249147563526
 21
-172.9422304429778
 31
0.0
  0
LINE
  5
336
330
1F
100
AcDbEntity
  8
0
 62
     3
100
AcDbLine
 10
474.2249147563521
 20
-150.9422304429778
 30
0.0
 11
474.2249147563521
 21
-172.9422304429777
 31
0.0
  0
LINE
  5
337
330
1F
100
AcDbEntity
  8
0
 62
     3
100
AcDbLine
 10
399.1249147563524
 20
-172.9422304429778
 30
0.0
 11
304.7249147563529
 21
-172.9422304429778
 31
0.0
  0
LINE
  5
338
330
1F
100
AcDbEntity
  8
0
 62
     3
100
AcDbLine
 10
444.3249147563522
 20
-172.9422304429778
 30
0.0
 11
538.724914756352
 21
-172.9422304429778
 31
0.0
  0
LINE
  5
339
330
1F
100
AcDbEntity
  8
0
 62
     3
100
AcDbLine
 10
469.7249147563521
 20
-133.9422304429779
 30
0.0
 11
496.7249147563522
 21
-133.9422304429779
 31
0.0
  0
LINE
  5
33A
330
1F
100
AcDbEntity
  8
0
 62
     3
100
AcDbLine
 10
373.7249147563525
 20
-133.9422304429779
 30
0.0
 11
346.7249147563526
 21
-133.9422304429779
 31
0.0
  0
LINE
  5
33B
330
1F
100
AcDbEntity
  8
0
 62
     3
100
AcDbLine
 10
346.7249147563526
 20
-68.94223044297816
 30
0.0
 11
496.724914756352
 21
-68.94223044297816
 31
0.0
  0
LINE
  5
33C
330
1F
100
AcDbEntity
  8
0
 62
     3
100
AcDbLine
 10
496.724914756352
 20
-68.94223044297816
 30
0.0
 11
496.7249147563522
 21
-145.9422304429779
 31
0.0
  0
LINE
  5
33D
330
1F
100
AcDbEntity
  8
0
 62
     3
100
AcDbLine
 10
346.7249147563526
 20
-68.94223044297816
 30
0.0
 11
346.7249147563526
 21
-145.9422304429779
 31
0.0
  0
LINE
  5
33E
330
1F
100
AcDbEntity
  8
0
 62
     3
100
AcDbLine
 10
346.7249147563539
 20
-118.6422304429769
 30
0.0
 11
344.7249147563528
 21
-118.6422304429779
 31
0.0
  0
LINE
  5
33F
330
1F
100
AcDbEntity
  8
0
 62
     3
100
AcDbLine
 10
344.7249147563528
 20
-118.6422304429779
 30
0.0
 11
344.7249147563526
 21
-67.64223044297809
 31
0.0
  0
LINE
  5
340
330
1F
100
AcDbEntity
  8
0
 62
     3
100
AcDbLine
 10
344.7249147563526
 20
-67.64223044297809
 30
0.0
 11
498.7249147563522
 21
-67.6422304429782
 31
0.0
  0
LINE
  5
341
330
1F
100
AcDbEntity
  8
0
 62
     3
100
AcDbLine
 10
498.7249147563522
 20
-67.6422304429782
 30
0.0
 11
498.7249147563522
 21
-118.642230442978
 31
0.0
  0
LINE
  5
342
330
1F
100
AcDbEntity
  8
0
 62
     3
100
AcDbLine
 10
496.7249147563522
 20
-145.9422304429779
 30
0.0
 11
471.7249147563521
 21
-145.9422304429778
 31
0.0
  0
LINE
  5
343
330
1F
100
AcDbEntity
  8
0
 62
     3
100
AcDbLine
 10
346.7249147563526
 20
-145.9422304429779
 30
0.0
 11
371.7249147563526
 21
-145.9422304429779
 31
0.0
  0
LINE
  5
344
330
1F
100
AcDbEntity
  8
0
 62
     3
100
AcDbLine
 10
371.7249147563526
 20
-145.9422304429779
 30
0.0
 11
371.7249147563526
 21
-133.9422304429779
 31
0.0
  0
LINE
  5
345
330
1F
100
AcDbEntity
  8
0
 62
     3
100
AcDbLine
 10
471.7249147563521
 20
-145.9422304429778
 30
0.0
 11
471.7249147563521
 21
-133.9422304429779
 31
0.0
  0
LINE
  5
346
330
1F
100
AcDbEntity
  8
0
 62
     3
100
AcDbLine
 10
301.7249147563529
 20
-175.9422304429779
 30
0.0
 11
301.724914756353
 21
-200.9422304429776
 31
0.0
  0
ARC
  5
347
330
1F
100
AcDbEntity
  8
0
 62
     3
100
AcDbCircle
 10
304.7249147563529
 20
-175.9422304429778
 30
0.0
 40
2.999999999999988
100
AcDbArc
 50
90.0
 51
179.9999999999999
  0
LINE
  5
348
330
1F
100
AcDbEntity
  8
0
 62
     3
100
AcDbLine
 10
334.2249147563528
 20
-175.9422304429778
 30
0.0
 11
334.2249147563528
 21
-200.9422304429776
 31
0.0
  0
ARC
  5
349
330
1F
100
AcDbEntity
  8
0
 62
     3
100
AcDbCircle
 10
337.2249147563528
 20
-175.9422304429778
 30
0.0
 40
2.999999999999988
100
AcDbArc
 50
90.0
 51
180.0
  0
LINE
  5
34A
330
1F
100
AcDbEntity
  8
0
 62
     3
100
AcDbLine
 10
541.724914756352
 20
-175.9422304429778
 30
0.0
 11
541.724914756352
 21
-200.9422304429776
 31
0.0
  0
ARC
  5
34B
330
1F
100
AcDbEntity
  8
0
 62
     3
100
AcDbCircle
 10
538.724914756352
 20
-175.9422304429778
 30
0.0
 40
2.999999999999988
100
AcDbArc
 50
0.0000000000001272
 51
90.0
  0
LINE
  5
34C
330
1F
100
AcDbEntity
  8
0
 62
     3
100
AcDbLine
 10
509.2249147563522
 20
-175.9422304429778
 30
0.0
 11
509.2249147563522
 21
-200.9422304429776
 31
0.0
  0
ARC
  5
34D
330
1F
100
AcDbEntity
  8
0
 62
     3
100
AcDbCircle
 10
506.2249147563522
 20
-175.9422304429779
 30
0.0
 40
2.999999999999988
100
AcDbArc
 50
0.0000000000004834
 51
90.0
  0
LINE
  5
34E
330
1F
100
AcDbEntity
  8
0
 62
     3
100
AcDbLine
 10
429.7249147563524
 20
-200.9422304429777
 30
0.0
 11
429.7249147563524
 21
-196.9422304429777
 31
0.0
  0
LINE
  5
34F
330
1F
100
AcDbEntity
  8
0
 62
     3
100
AcDbLine
 10
413.7249147563524
 20
-196.9422304429777
 30
0.0
 11
429.7249147563524
 21
-196.9422304429777
 31
0.0
  0
LINE
  5
350
330
1F
100
AcDbEntity
  8
0
 62
     3
100
AcDbLine
 10
413.7249147563524
 20
-196.9422304429777
 30
0.0
 11
413.7249147563524
 21
-200.9422304429777
 31
0.0
  0
LINE
  5
351
330
1F
100
AcDbEntity
  8
0
 62
     3
100
AcDbLine
 10
431.2249147563524
 20
-200.9422304429777
 30
0.0
 11
431.2249147563524
 21
-176.9422304429778
 31
0.0
  0
LINE
  5
352
330
1F
100
AcDbEntity
  8
0
 62
     3
100
AcDbLine
 10
412.2249147563524
 20
-176.9422304429778
 30
0.0
 11
412.2249147563524
 21
-200.9422304429777
 31
0.0
  0
LINE
  5
353
330
1F
100
AcDbEntity
  8
0
 62
     3
100
AcDbLine
 10
488.7249147563524
 20
-165.4353397854665
 30
0.0
 11
488.7249147563521
 21
-172.9422304429778
 31
0.0
  0
LINE
  5
354
330
1F
100
AcDbEntity
  8
0
 62
     3
100
AcDbLine
 10
354.7249147563526
 20
-156.9422304429781
 30
0.0
 11
354.7249147563526
 21
-172.9422304429778
 31
0.0
  0
LINE
  5
355
330
1F
100
AcDbEntity
  8
0
 62
     3
100
AcDbLine
 10
348.7249147563526
 20
-150.9422304429782
 30
0.0
 11
348.7249147563526
 21
-145.9422304429779
 31
0.0
  0
ARC
  5
356
330
1F
100
AcDbEntity
  8
0
 62
     3
100
AcDbCircle
 10
351.7249147563526
 20
-150.9422304429782
 30
0.0
 40
2.999999999999988
100
AcDbArc
 50
179.9999999999999
 51
270.0
  0
LINE
  5
357
330
1F
100
AcDbEntity
  8
0
 62
     3
100
AcDbLine
 10
494.7249147563522
 20
-146.9422304429777
 30
0.0
 11
494.7249147563522
 21
-145.9422304429778
 31
0.0
  0
ARC
  5
358
330
1F
100
AcDbEntity
  8
0
 62
     3
100
AcDbCircle
 10
351.7249147563526
 20
-156.9422304429781
 30
0.0
 40
2.999999999999988
100
AcDbArc
 50
0.0000000000000127
 51
90.0
  0
LINE
  5
359
330
1F
100
AcDbEntity
  8
0
 62
     3
100
AcDbLine
 10
444.1249147563522
 20
-172.9422304429776
 30
0.0
 11
444.1249147563524
 21
-115.4422304429782
 31
0.0
  0
LINE
  5
35A
330
1F
100
AcDbEntity
  8
0
 62
     3
100
AcDbLine
 10
399.3249147563524
 20
-172.9422304429776
 30
0.0
 11
399.3249147563527
 21
-115.4422304429781
 31
0.0
  0
LINE
  5
35B
330
1F
100
AcDbEntity
  8
0
 62
     3
100
AcDbLine
 10
403.3249147563524
 20
-176.9422304429778
 30
0.0
 11
399.3249147563524
 21
-172.9422304429776
 31
0.0
  0
CIRCLE
  5
35C
330
1F
100
AcDbEntity
  8
0
 62
     3
100
AcDbCircle
 10
421.7249147563524
 20
-99.94223044297793
 30
0.0
 40
11.99999999999992
  0
LINE
  5
35D
330
1F
100
AcDbEntity
  8
0
 62
     3
100
AcDbLine
 10
428.579020198767
 20
-95.81655006463286
 30
0.0
 11
421.870806050687
 21
-91.94356082045722
 31
0.0
  0
LINE
  5
35E
330
1F
100
AcDbEntity
  8
0
 62
     3
100
AcDbLine
 10
421.5790234620179
 20
-91.94356082045711
 30
0.0
 11
414.8708093139378
 21
-95.81655006463275
 31
0.0
  0
LINE
  5
35F
330
1F
100
AcDbEntity
  8
0
 62
     3
100
AcDbLine
 10
414.7249180196031
 20
-96.0692411988024
 30
0.0
 11
414.7249180196031
 21
-103.8152196871536
 31
0.0
  0
LINE
  5
360
330
1F
100
AcDbEntity
  8
0
 62
     3
100
AcDbLine
 10
414.8708093139379
 20
-104.0679108213232
 30
0.0
 11
421.5790234620176
 21
-107.9409000654987
 31
0.0
  0
LINE
  5
361
330
1F
100
AcDbEntity
  8
0
 62
     3
100
AcDbLine
 10
421.8708060506872
 20
-107.9409000654988
 30
0.0
 11
428.579020198767
 21
-104.0679108213232
 31
0.0
  0
LINE
  5
362
330
1F
100
AcDbEntity
  8
0
 62
     3
100
AcDbLine
 10
428.7249114931016
 20
-103.8152196871537
 30
0.0
 11
428.7249114931016
 21
-96.06924119880229
 31
0.0
  0
CIRCLE
  5
363
330
1F
100
AcDbEntity
  8
0
 62
     3
100
AcDbCircle
 10
421.7249147563524
 20
-99.94223044297793
 30
0.0
 40
6.784615385099971
  0
CIRCLE
  5
364
330
1F
100
AcDbEntity
  8
0
 62
     3
100
AcDbCircle
 10
421.7249147563524
 20
-99.94223044297793
 30
0.0
 40
7.999999999999968
  0
LINE
  5
365
330
1F
100
AcDbEntity
  8
0
 62
     3
100
AcDbLine
 10
473.456964756352
 20
-102.9422290442275
 30
0.0
 11
475.189014756352
 21
-99.94223044297782
 31
0.0
  0
LINE
  5
366
330
1F
100
AcDbEntity
  8
0
 62
     3
100
AcDbLine
 10
475.189014756352
 20
-99.94223044297782
 30
0.0
 11
473.456964756352
 21
-96.94223184172815
 31
0.0
  0
LINE
  5
367
330
1F
100
AcDbEntity
  8
0
 62
     3
100
AcDbLine
 10
473.456964756352
 20
-96.94223184172815
 30
0.0
 11
469.9928647563521
 21
-96.94223184172815
 31
0.0
  0
LINE
  5
368
330
1F
100
AcDbEntity
  8
0
 62
     3
100
AcDbLine
 10
469.9928647563521
 20
-96.94223184172815
 30
0.0
 11
468.260814756352
 21
-99.94223044297782
 31
0.0
  0
LINE
  5
369
330
1F
100
AcDbEntity
  8
0
 62
     3
100
AcDbLine
 10
468.260814756352
 20
-99.94223044297782
 30
0.0
 11
469.9928647563521
 21
-102.9422290442275
 31
0.0
  0
LINE
  5
36A
330
1F
100
AcDbEntity
  8
0
 62
     3
100
AcDbLine
 10
469.9928647563521
 20
-102.9422290442275
 30
0.0
 11
473.456964756352
 21
-102.9422290442275
 31
0.0
  0
CIRCLE
  5
36B
330
1F
100
AcDbEntity
  8
0
 62
     3
100
AcDbCircle
 10
471.7249147563521
 20
-99.94223044297782
 30
0.0
 40
6.499999999999974
  0
CIRCLE
  5
36C
330
1F
100
AcDbEntity
  8
0
 62
     3
100
AcDbCircle
 10
471.7249147563521
 20
-99.94223044297782
 30
0.0
 40
5.633974192430912
  0
LINE
  5
36D
330
1F
100
AcDbEntity
  8
0
 62
     3
100
AcDbLine
 10
373.4569647563524
 20
-102.9422290442277
 30
0.0
 11
375.1890147563523
 21
-99.94223044297804
 31
0.0
  0
LINE
  5
36E
330
1F
100
AcDbEntity
  8
0
 62
     3
100
AcDbLine
 10
375.1890147563523
 20
-99.94223044297804
 30
0.0
 11
373.4569647563524
 21
-96.94223184172837
 31
0.0
  0
LINE
  5
36F
330
1F
100
AcDbEntity
  8
0
 62
     3
100
AcDbLine
 10
373.4569647563524
 20
-96.94223184172837
 30
0.0
 11
369.9928647563525
 21
-96.94223184172837
 31
0.0
  0
LINE
  5
370
330
1F
100
AcDbEntity
  8
0
 62
     3
100
AcDbLine
 10
369.9928647563525
 20
-96.94223184172837
 30
0.0
 11
368.2608147563524
 21
-99.94223044297804
 31
0.0
  0
LINE
  5
371
330
1F
100
AcDbEntity
  8
0
 62
     3
100
AcDbLine
 10
368.2608147563524
 20
-99.94223044297804
 30
0.0
 11
369.9928647563525
 21
-102.9422290442277
 31
0.0
  0
LINE
  5
372
330
1F
100
AcDbEntity
  8
0
 62
     3
100
AcDbLine
 10
369.9928647563525
 20
-102.9422290442277
 30
0.0
 11
373.4569647563524
 21
-102.9422290442277
 31
0.0
  0
CIRCLE
  5
373
330
1F
100
AcDbEntity
  8
0
 62
     3
100
AcDbCircle
 10
371.7249147563524
 20
-99.94223044297804
 30
0.0
 40
6.499999999999974
  0
CIRCLE
  5
374
330
1F
100
AcDbEntity
  8
0
 62
     3
100
AcDbCircle
 10
371.7249147563524
 20
-99.94223044297804
 30
0.0
 40
5.633974192430912
  0
LINE
  5
375
330
1F
100
AcDbEntity
  8
0
 62
     3
100
AcDbLine
 10
411.7249147563524
 20
-70.44223044297816
 30
0.0
 11
431.7249147563524
 21
-70.44223044297816
 31
0.0
  0
LINE
  5
376
330
1F
100
AcDbEntity
  8
0
 62
     3
100
AcDbLine
 10
350.7249147563526
 20
-114.6422304429769
 30
0.0
 11
350.7249147563525
 21
-84.96193339955694
 31
0.0
  0
ARC
  5
377
330
1F
100
AcDbEntity
  8
0
 62
     3
100
AcDbCircle
 10
346.7249147563526
 20
-114.6422304429769
 30
0.0
 40
3.999999999999984
100
AcDbArc
 50
270.0000000000169
 51
360.0
  0
ARC
  5
378
330
1F
100
AcDbEntity
  8
0
 62
     3
100
AcDbCircle
 10
360.7249147563525
 20
-84.96193339955694
 30
0.0
 40
9.999999999999961
100
AcDbArc
 50
100.1288290883666
 51
179.9999999999999
  0
ARC
  5
379
330
1F
100
AcDbEntity
  8
0
 62
     3
100
AcDbCircle
 10
411.7249147563524
 20
-370.442230442977
 30
0.0
 40
299.9999999999988
100
AcDbArc
 50
89.99999999999997
 51
100.1288290883666
  0
LINE
  5
37A
330
1F
100
AcDbEntity
  8
0
 62
     3
100
AcDbLine
 10
386.7249147563526
 20
-118.4422304429778
 30
0.0
 11
386.7249147563525
 21
-100.942230442978
 31
0.0
  0
LINE
  5
37B
330
1F
100
AcDbEntity
  8
0
 62
     3
100
AcDbLine
 10
361.7249147563526
 20
-118.4422304429778
 30
0.0
 11
361.7249147563526
 21
-84.30364595407828
 31
0.0
  0
ARC
  5
37C
330
1F
100
AcDbEntity
  8
0
 62
     3
100
AcDbCircle
 10
421.7249147563524
 20
-100.9422304429779
 30
0.0
 40
29.99999999999988
100
AcDbArc
 50
221.6975466031627
 51
318.3024533968375
  0
LINE
  5
37D
330
1F
100
AcDbEntity
  8
0
 62
     3
100
AcDbLine
 10
415.7249147563524
 20
-71.94223044297816
 30
0.0
 11
427.7249147563524
 21
-71.94223044297816
 31
0.0
  0
ARC
  5
37E
330
1F
100
AcDbEntity
  8
0
 62
     3
100
AcDbCircle
 10
415.7249147563524
 20
-100.942230442978
 30
0.0
 40
28.99999999999988
100
AcDbArc
 50
90.00000000000003
 51
179.9999999999999
  0
LINE
  5
37F
330
1F
100
AcDbEntity
  8
0
 62
     3
100
AcDbLine
 10
394.7249147563535
 20
-118.4422304429778
 30
0.0
 11
361.7249147563526
 21
-118.4422304429779
 31
0.0
  0
LINE
  5
380
330
1F
100
AcDbEntity
  8
0
 62
     3
100
AcDbLine
 10
365.0361179374222
 20
-80.36339736519064
 30
0.0
 11
410.7311378191065
 21
-72.37542817354257
 31
0.0
  0
ARC
  5
381
330
1F
100
AcDbEntity
  8
0
 62
     3
100
AcDbCircle
 10
365.7249147563526
 20
-84.30364595407828
 30
0.0
 40
3.999999999999984
100
AcDbArc
 50
99.91571015041978
 51
179.9999999999999
  0
LINE
  5
382
330
1F
100
AcDbEntity
  8
0
 62
     3
100
AcDbLine
 10
394.7249147563535
 20
-118.4422304429778
 30
0.0
 11
394.7249147563525
 21
-115.4422304429778
 31
0.0
  0
LINE
  5
383
330
1F
100
AcDbEntity
  8
0
 62
     3
100
AcDbLine
 10
386.7249147563525
 20
-115.4422304429779
 30
0.0
 11
399.3249147563527
 21
-115.4422304429781
 31
0.0
  0
LINE
  5
384
330
1F
100
AcDbEntity
  8
0
 62
     3
100
AcDbLine
 10
456.7249147563521
 20
-118.4422304429779
 30
0.0
 11
456.7249147563523
 21
-100.942230442978
 31
0.0
  0
LINE
  5
385
330
1F
100
AcDbEntity
  8
0
 62
     3
100
AcDbLine
 10
481.7249147563521
 20
-118.4422304429779
 30
0.0
 11
481.7249147563524
 21
-84.30364595407828
 31
0.0
  0
ARC
  5
386
330
1F
100
AcDbEntity
  8
0
 62
     3
100
AcDbCircle
 10
427.7249147563524
 20
-100.942230442978
 30
0.0
 40
28.99999999999988
100
AcDbArc
 50
0.0
 51
89.99999999999997
  0
LINE
  5
387
330
1F
100
AcDbEntity
  8
0
 62
     3
100
AcDbLine
 10
448.7249147563514
 20
-118.4422304429778
 30
0.0
 11
481.7249147563521
 21
-118.442230442978
 31
0.0
  0
LINE
  5
388
330
1F
100
AcDbEntity
  8
0
 62
     3
100
AcDbLine
 10
478.4137115752827
 20
-80.36339736519075
 30
0.0
 11
432.7186916935984
 21
-72.37542817354257
 31
0.0
  0
ARC
  5
389
330
1F
100
AcDbEntity
  8
0
 62
     3
100
AcDbCircle
 10
477.7249147563524
 20
-84.30364595407828
 30
0.0
 40
3.999999999999984
100
AcDbArc
 50
360.0
 51
80.08428984958016
  0
LINE
  5
38A
330
1F
100
AcDbEntity
  8
0
 62
     3
100
AcDbLine
 10
448.7249147563514
 20
-118.4422304429778
 30
0.0
 11
448.7249147563523
 21
-115.4422304429779
 31
0.0
  0
LINE
  5
38B
330
1F
100
AcDbEntity
  8
0
 62
     3
100
AcDbLine
 10
456.7249147563523
 20
-115.442230442978
 30
0.0
 11
444.1249147563522
 21
-115.4422304429781
 31
0.0
  0
LINE
  5
38C
330
1F
100
AcDbEntity
  8
0
 62
     3
100
AcDbLine
 10
496.724914756351
 20
-118.642230442977
 30
0.0
 11
498.7249147563522
 21
-118.642230442978
 31
0.0
  0
LINE
  5
38D
330
1F
100
AcDbEntity
  8
0
 62
     3
100
AcDbLine
 10
492.7249147563522
 20
-114.642230442977
 30
0.0
 11
492.7249147563524
 21
-84.96193339955705
 31
0.0
  0
ARC
  5
38E
330
1F
100
AcDbEntity
  8
0
 62
     3
100
AcDbCircle
 10
496.7249147563522
 20
-114.642230442977
 30
0.0
 40
3.999999999999984
100
AcDbArc
 50
179.9999999999999
 51
269.9999999999831
  0
ARC
  5
38F
330
1F
100
AcDbEntity
  8
0
 62
     3
100
AcDbCircle
 10
482.7249147563524
 20
-84.96193339955705
 30
0.0
 40
9.999999999999961
100
AcDbArc
 50
360.0
 51
79.87117091163327
  0
ARC
  5
390
330
1F
100
AcDbEntity
  8
0
 62
     3
100
AcDbCircle
 10
431.7249147563521
 20
-370.442230442977
 30
0.0
 40
299.9999999999988
100
AcDbArc
 50
79.8711709116333
 51
89.99999999999994
  0
LINE
  5
391
330
1F
100
AcDbEntity
  8
0
 62
     3
100
AcDbLine
 10
541.724914756352
 20
-200.9422304429776
 30
0.0
 11
301.724914756353
 21
-200.9422304429776
 31
0.0
  0
LINE
  5
392
330
1F
100
AcDbEntity
  8
0
 62
     3
100
AcDbLine
 10
-322.4108273501857
 20
-171.9422304429774
 30
0.0
 11
-286.410827350186
 21
-171.9422304429775
 31
0.0
  0
LINE
  5
393
330
1F
100
AcDbEntity
  8
0
 62
     3
100
AcDbLine
 10
-286.410827350186
 20
-171.9422304429775
 30
0.0
 11
-280.8752934442533
 21
-177.4777643489102
 31
0.0
  0
LINE
  5
394
330
1F
100
AcDbEntity
  8
0
 62
     3
100
AcDbLine
 10
-322.4108273501859
 20
-171.9422304429775
 30
0.0
 11
-327.9463612561185
 21
-177.4777643489102
 31
0.0
  0
LINE
  5
395
330
1F
100
AcDbEntity
  8
0
 62
     3
100
AcDbLine
 10
-254.4108273501861
 20
-176.4422304429775
 30
0.0
 11
-254.4108273501861
 21
-175.4422304429775
 31
0.0
  0
LINE
  5
396
330
1F
100
AcDbEntity
  8
0
 62
     3
100
AcDbLine
 10
-352.4153561533275
 20
-174.9422304429774
 30
0.0
 11
-352.4153561533275
 21
-176.9422304429774
 31
0.0
  0
LINE
  5
397
330
1F
100
AcDbEntity
  8
0
 62
     3
100
AcDbLine
 10
-354.4108273501857
 20
-174.9422304429774
 30
0.0
 11
-354.4108273501857
 21
-176.9422304429774
 31
0.0
  0
ARC
  5
398
330
1F
100
AcDbEntity
  8
0
 62
     3
100
AcDbCircle
 10
-355.4108273501857
 20
-173.5518422397752
 30
0.0
 40
0.60961179679779
100
AcDbArc
 50
31.36697777463356
 51
90.0
  0
ARC
  5
399
330
1F
100
AcDbEntity
  8
0
 62
     3
100
AcDbCircle
 10
-357.6916037565901
 20
-174.9422304429774
 30
0.0
 40
3.280776406404402
100
AcDbArc
 50
0.0000000000025304
 51
31.36697777463356
  0
ARC
  5
39A
330
1F
100
AcDbEntity
  8
0
 62
     3
100
AcDbCircle
 10
-353.4153561533275
 20
-173.5518422397752
 30
0.0
 40
0.60961179679779
100
AcDbArc
 50
31.36697777463356
 51
90.0
  0
ARC
  5
39B
330
1F
100
AcDbEntity
  8
0
 62
     3
100
AcDbCircle
 10
-355.6961325597318
 20
-174.9422304429774
 30
0.0
 40
3.280776406404402
100
AcDbArc
 50
0.0000000000025304
 51
31.36697777463356
  0
ARC
  5
39C
330
1F
100
AcDbEntity
  8
0
 62
     3
100
AcDbCircle
 10
-353.4108273501857
 20
-178.3326186461796
 30
0.0
 40
0.60961179679779
100
AcDbArc
 50
211.3669777746335
 51
270.0
  0
ARC
  5
39D
330
1F
100
AcDbEntity
  8
0
 62
     3
100
AcDbCircle
 10
-351.1300509437813
 20
-176.9422304429774
 30
0.0
 40
3.280776406404402
100
AcDbArc
 50
180.0000000000025
 51
211.3669777746335
  0
ARC
  5
39E
330
1F
100
AcDbEntity
  8
0
 62
     3
100
AcDbCircle
 10
-351.4153561533275
 20
-178.3326186461796
 30
0.0
 40
0.60961179679779
100
AcDbArc
 50
211.3669777746335
 51
270.0
  0
ARC
  5
39F
330
1F
100
AcDbEntity
  8
0
 62
     3
100
AcDbCircle
 10
-349.134579746923
 20
-176.9422304429774
 30
0.0
 40
3.280776406404402
100
AcDbArc
 50
180.0000000000025
 51
211.3669777746335
  0
ARC
  5
3A0
330
1F
100
AcDbEntity
  8
0
 62
     3
100
AcDbCircle
 10
-251.9108273501861
 20
-175.4422304429775
 30
0.0
 40
2.49999999999999
100
AcDbArc
 50
90.0
 51
180.0
  0
ARC
  5
3A1
330
1F
100
AcDbEntity
  8
0
 62
     3
100
AcDbCircle
 10
-256.9108273501861
 20
-176.4422304429775
 30
0.0
 40
2.49999999999999
100
AcDbArc
 50
270.0
 51
360.0
  0
LINE
  5
3A2
330
1F
100
AcDbEntity
  8
0
 62
     3
100
AcDbLine
 10
-331.4818951620513
 20
-178.9422304429774
 30
0.0
 11
-353.4108273501857
 21
-178.9422304429774
 31
0.0
  0
LINE
  5
3A3
330
1F
100
AcDbEntity
  8
0
 62
     3
100
AcDbLine
 10
-277.3397595383206
 20
-178.9422304429774
 30
0.0
 11
-256.9108273501861
 21
-178.9422304429774
 31
0.0
  0
LINE
  5
3A4
330
1F
100
AcDbEntity
  8
0
 62
     3
100
AcDbLine
 10
-322.4108273501871
 20
-171.9422304429776
 30
0.0
 11
-286.4108273501872
 21
-171.9422304429776
 31
0.0
  0
ARC
  5
3A5
330
1F
100
AcDbEntity
  8
0
 62
     3
100
AcDbCircle
 10
-277.3397595383206
 20
-173.9422304429774
 30
0.0
 40
5.0
100
AcDbArc
 50
224.9999999999998
 51
270.0
  0
ARC
  5
3A6
330
1F
100
AcDbEntity
  8
0
 62
     3
100
AcDbCircle
 10
-331.4818951620513
 20
-173.9422304429774
 30
0.0
 40
5.0
100
AcDbArc
 50
270.0
 51
315.0000000000002
  0
LINE
  5
3A7
330
1F
100
AcDbEntity
  8
0
 62
     3
100
AcDbLine
 10
334.2249147563531
 20
-208.9422304429776
 30
0.0
 11
359.2249147563531
 21
-208.9422304429776
 31
0.0
  0
LINE
  5
3A8
330
1F
100
AcDbEntity
  8
0
 62
     3
100
AcDbLine
 10
359.2249147563531
 20
-208.9422304429776
 30
0.0
 11
359.2249147563531
 21
-200.9422304429776
 31
0.0
  0
LINE
  5
3A9
330
1F
100
AcDbEntity
  8
0
 62
     3
100
AcDbLine
 10
334.2249147563531
 20
-208.9422304429776
 30
0.0
 11
334.2249147563531
 21
-200.9422304429776
 31
0.0
  0
LINE
  5
3AA
330
1F
100
AcDbEntity
  8
0
 62
     3
100
AcDbLine
 10
509.2249147563517
 20
-208.9422304429774
 30
0.0
 11
484.2249147563517
 21
-208.9422304429775
 31
0.0
  0
LINE
  5
3AB
330
1F
100
AcDbEntity
  8
0
 62
     3
100
AcDbLine
 10
484.2249147563517
 20
-208.9422304429775
 30
0.0
 11
484.2249147563517
 21
-200.9422304429774
 31
0.0
  0
LINE
  5
3AC
330
1F
100
AcDbEntity
  8
0
 62
     3
100
AcDbLine
 10
509.2249147563517
 20
-208.9422304429774
 30
0.0
 11
509.2249147563517
 21
-200.9422304429774
 31
0.0
  0
LINE
  5
3AD
330
1F
100
AcDbEntity
  8
0
 62
     3
100
AcDbLine
 10
80.58917264981483
 20
-145.0471811571721
 30
0.0
 11
80.58917264981483
 21
-118.4422304429779
 31
0.0
  0
LINE
  5
3AE
330
1F
100
AcDbEntity
  8
0
 62
     3
100
AcDbLine
 10
80.58917264981483
 20
-118.9422304429777
 30
0.0
 11
37.58917264981281
 21
-118.9422304429777
 31
0.0
  0
LINE
  5
3AF
330
1F
100
AcDbEntity
  8
0
 62
     3
100
AcDbLine
 10
-165.4108273501863
 20
-118.9422304429777
 30
0.0
 11
-399.4108273501857
 21
-118.9422304429777
 31
0.0
  0
LINE
  5
3B0
330
1F
100
AcDbEntity
  8
0
 62
     3
100
AcDbLine
 10
56.58917264981307
 20
299.1586587157015
 30
0.0
 11
78.58917264981483
 21
299.1586587157015
 31
0.0
  0
LINE
  5
3B1
330
1F
100
AcDbEntity
  8
0
 62
     3
100
AcDbLine
 10
56.58917264981307
 20
183.1586587157016
 30
0.0
 11
78.58917264981483
 21
183.1586587157016
 31
0.0
  0
LINE
  5
3B2
330
1F
100
AcDbEntity
  8
0
 62
     3
100
AcDbLine
 10
100.5891726498123
 20
178.6586587157015
 30
0.0
 11
100.5891726498123
 21
217.1586587157015
 31
0.0
  0
LINE
  5
3B3
330
1F
100
AcDbEntity
  8
0
 62
     3
100
AcDbLine
 10
100.5891726498123
 20
265.1586587157013
 30
0.0
 11
100.5891726498123
 21
303.6586587157012
 31
0.0
  0
LINE
  5
3B4
330
1F
100
AcDbEntity
  8
0
 62
     3
100
AcDbLine
 10
92.5891726498123
 20
178.6586587157015
 30
0.0
 11
92.58917264981423
 21
206.1586587157015
 31
0.0
  0
LINE
  5
3B5
330
1F
100
AcDbEntity
  8
0
 62
     3
100
AcDbLine
 10
92.5891726498123
 20
276.1586587157013
 30
0.0
 11
92.5891726498123
 21
303.6586587157012
 31
0.0
  0
LINE
  5
3B6
330
1F
100
AcDbEntity
  8
0
 62
     3
100
AcDbLine
 10
80.58917264981483
 20
297.1586587157015
 30
0.0
 11
80.58917264981483
 21
276.1586587157013
 31
0.0
  0
LINE
  5
3B7
330
1F
100
AcDbEntity
  8
0
 62
     3
100
AcDbLine
 10
80.58917264981483
 20
206.1586587157015
 30
0.0
 11
80.58917264981483
 21
185.1586587157016
 31
0.0
  0
LINE
  5
3B8
330
1F
100
AcDbEntity
  8
0
 62
     3
100
AcDbLine
 10
78.58917264981483
 20
299.1586587157015
 30
0.0
 11
80.58917264981483
 21
297.1586587157015
 31
0.0
  0
LINE
  5
3B9
330
1F
100
AcDbEntity
  8
0
 62
     3
100
AcDbLine
 10
78.58917264981483
 20
183.1586587157016
 30
0.0
 11
80.58917264981483
 21
185.1586587157016
 31
0.0
  0
LINE
  5
3BA
330
1F
100
AcDbEntity
  8
0
 62
     3
100
AcDbLine
 10
172.5891726498157
 20
-93.95106562505502
 30
0.0
 11
149.0891726498182
 21
-93.95106562505502
 31
0.0
  0
LINE
  5
3BB
330
1F
100
AcDbEntity
  8
0
 62
     3
100
AcDbLine
 10
149.0891726498182
 20
-95.47008507882384
 30
0.0
 11
172.5891726498157
 21
-95.47008507882384
 31
0.0
  0
LINE
  5
3BC
330
1F
100
AcDbEntity
  8
0
 62
     3
100
AcDbLine
 10
149.0891726498182
 20
-104.414375807132
 30
0.0
 11
172.5891726498157
 21
-104.414375807132
 31
0.0
  0
LINE
  5
3BD
330
1F
100
AcDbEntity
  8
0
 62
     3
100
AcDbLine
 10
172.5891726498157
 20
-105.9333952609009
 30
0.0
 11
149.0891726498182
 21
-105.9333952609009
 31
0.0
  0
LINE
  5
3BE
330
1F
100
AcDbEntity
  8
0
 62
     3
100
AcDbLine
 10
174.0891726498157
 20
-90.94223044297794
 30
0.0
 11
172.5891726498157
 21
-89.44223044297794
 31
0.0
  0
LINE
  5
3BF
330
1F
100
AcDbEntity
  8
0
 62
     3
100
AcDbLine
 10
172.5891726498157
 20
-93.95106562505502
 30
0.0
 11
172.5891726498157
 21
-95.47008507882384
 31
0.0
  0
ARC
  5
3C0
330
1F
100
AcDbEntity
  8
0
 62
     3
100
AcDbCircle
 10
163.0891305707533
 20
-99.94223044297794
 30
0.0
 40
10.50004207906244
100
AcDbArc
 50
334.7912860464571
 51
25.20871395354305
  0
ARC
  5
3C1
330
1F
100
AcDbEntity
  8
0
 62
     3
100
AcDbCircle
 10
170.5479733124237
 20
-91.69664803401648
 30
0.0
 40
3.041199337392017
100
AcDbArc
 50
312.1583853430245
 51
47.84161465697531
  0
ARC
  5
3C2
330
1F
100
AcDbEntity
  8
0
 62
     3
100
AcDbCircle
 10
170.5479733124237
 20
-108.1878128519394
 30
0.0
 40
3.041199337392017
100
AcDbArc
 50
312.1583853430247
 51
47.84161465697554
  0
LINE
  5
3C3
330
1F
100
AcDbEntity
  8
0
 62
     3
100
AcDbLine
 10
174.0891726498157
 20
-108.9422304429779
 30
0.0
 11
172.5891726498157
 21
-110.4422304429779
 31
0.0
  0
LINE
  5
3C4
330
1F
100
AcDbEntity
  8
0
 62
     3
100
AcDbLine
 10
172.5891726498157
 20
-105.9333952609008
 30
0.0
 11
172.5891726498157
 21
-104.414375807132
 31
0.0
  0
LINE
  5
3C5
330
1F
100
AcDbEntity
  8
0
 62
     3
100
AcDbLine
 10
149.0891726498194
 20
242.0356650062392
 30
0.0
 11
172.5891726498171
 21
242.0356650062392
 31
0.0
  0
LINE
  5
3C6
330
1F
100
AcDbEntity
  8
0
 62
     3
100
AcDbLine
 10
149.0891726498194
 20
240.2816524251637
 30
0.0
 11
172.5891726498171
 21
240.2816524251637
 31
0.0
  0
LINE
  5
3C7
330
1F
100
AcDbEntity
  8
0
 62
     3
100
AcDbLine
 10
149.0891726498194
 20
249.7816479957877
 30
0.0
 11
172.5891726498171
 21
249.7816479957877
 31
0.0
  0
LINE
  5
3C8
330
1F
100
AcDbEntity
  8
0
 62
     3
100
AcDbLine
 10
174.089172649817
 20
250.1586587157014
 30
0.0
 11
173.5891726498171
 21
250.6586587157014
 31
0.0
  0
LINE
  5
3C9
330
1F
100
AcDbEntity
  8
0
 62
     3
100
AcDbLine
 10
172.5891726498171
 20
242.0356650062392
 30
0.0
 11
172.5891726498171
 21
240.2816524251637
 31
0.0
  0
ARC
  5
3CA
330
1F
100
AcDbEntity
  8
0
 62
     3
100
AcDbCircle
 10
165.5891410905201
 20
245.9086565010134
 30
0.0
 40
8.00003155929692
100
AcDbArc
 50
331.0450339878364
 51
28.9549660121636
  0
LINE
  5
3CB
330
1F
100
AcDbEntity
  8
0
 62
     3
100
AcDbLine
 10
172.5891726498171
 20
249.7816479957877
 30
0.0
 11
172.5891726498171
 21
250.6586587157014
 31
0.0
  0
LINE
  5
3CC
330
1F
100
AcDbEntity
  8
0
 62
     3
100
AcDbLine
 10
174.089172649817
 20
232.1586587157015
 30
0.0
 11
173.5891726498171
 21
231.6586587157015
 31
0.0
  0
ARC
  5
3CD
330
1F
100
AcDbEntity
  8
0
 62
     3
100
AcDbCircle
 10
165.5891410905201
 20
236.4086609303895
 30
0.0
 40
8.00003155929692
100
AcDbArc
 50
331.0450339878364
 51
28.9549660121636
  0
LINE
  5
3CE
330
1F
100
AcDbEntity
  8
0
 62
     3
100
AcDbLine
 10
172.5891726498171
 20
232.5356694356152
 30
0.0
 11
172.5891726498171
 21
231.6586587157015
 31
0.0
  0
LINE
  5
3CF
330
1F
100
AcDbEntity
  8
0
 62
     3
100
AcDbLine
 10
149.0891726498194
 20
232.5356694356152
 30
0.0
 11
172.5891726498171
 21
232.5356694356152
 31
0.0
  0
LINE
  5
3D0
330
1F
100
AcDbEntity
  8
0
  6
CENTER
 62
     2
100
AcDbLine
 10
-489.410827350188
 20
252.6586587157014
 30
0.0
 11
-489.410827350188
 21
229.6586587157015
 31
0.0
  0
LINE
  5
3D1
330
1F
100
AcDbEntity
  8
0
  6
CENTER
 62
     2
100
AcDbLine
 10
-215.9108273501885
 20
341.1586587157012
 30
0.0
 11
-127.9108273501887
 21
341.1586587157012
 31
0.0
  0
LINE
  5
3D2
330
1F
100
AcDbEntity
  8
0
  6
CENTER
 62
     2
100
AcDbLine
 10
-204.4108273501885
 20
352.6586587157012
 30
0.0
 11
-204.4108273501885
 21
329.6586587157012
 31
0.0
  0
LINE
  5
3D3
330
1F
100
AcDbEntity
  8
0
  6
CENTER
 62
     2
100
AcDbLine
 10
-139.4108273501886
 20
352.6586587157012
 30
0.0
 11
-139.4108273501886
 21
329.6586587157012
 31
0.0
  0
LINE
  5
3D4
330
1F
100
AcDbEntity
  8
0
  6
CENTER
 62
     2
100
AcDbLine
 10
-139.4108273501886
 20
152.6586587157016
 30
0.0
 11
-139.4108273501886
 21
129.6586587157016
 31
0.0
  0
LINE
  5
3D5
330
1F
100
AcDbEntity
  8
0
  6
CENTER
 62
     2
100
AcDbLine
 10
-215.9108273501885
 20
141.1586587157016
 30
0.0
 11
-127.9108273501887
 21
141.1586587157016
 31
0.0
  0
LINE
  5
3D6
330
1F
100
AcDbEntity
  8
0
  6
CENTER
 62
     2
100
AcDbLine
 10
-204.4108273501885
 20
152.6586587157016
 30
0.0
 11
-204.4108273501885
 21
129.6586587157016
 31
0.0
  0
LINE
  5
3D7
330
1F
100
AcDbEntity
  8
0
  6
CENTER
 62
     2
100
AcDbLine
 10
-304.4108273501896
 20
361.1586587157012
 30
0.0
 11
-304.4108273501896
 21
121.1586587157017
 31
0.0
  0
LINE
  5
3D8
330
1F
100
AcDbEntity
  8
0
  6
CENTER
 62
     2
100
AcDbLine
 10
-304.4108273501884
 20
-169.9422304429776
 30
0.0
 11
-304.4108273501884
 21
-210.9422304429776
 31
0.0
  0
LINE
  5
3D9
330
1F
100
AcDbEntity
  8
0
  6
CENTER
 62
     2
100
AcDbLine
 10
-34.41082735018507
 20
-157.9422304429776
 30
0.0
 11
-10.41082735018512
 21
-157.9422304429776
 31
0.0
  0
LINE
  5
3DA
330
1F
100
AcDbEntity
  8
0
  6
CENTER
 62
     2
100
AcDbLine
 10
-22.41082735018509
 20
-169.9422304429776
 30
0.0
 11
-22.41082735018509
 21
-145.9422304429777
 31
0.0
  0
LINE
  5
3DB
330
1F
100
AcDbEntity
  8
0
  6
CENTER
 62
     2
100
AcDbLine
 10
-234.4108273501848
 20
-157.9422304429776
 30
0.0
 11
-210.4108273501848
 21
-157.9422304429776
 31
0.0
  0
LINE
  5
3DC
330
1F
100
AcDbEntity
  8
0
  6
CENTER
 62
     2
100
AcDbLine
 10
-222.4108273501848
 20
-169.9422304429776
 30
0.0
 11
-222.4108273501848
 21
-145.9422304429777
 31
0.0
  0
LINE
  5
3DD
330
1F
100
AcDbEntity
  8
0
  6
CENTER
 62
     2
100
AcDbLine
 10
-134.4108273501849
 20
-157.9422304429776
 30
0.0
 11
-110.4108273501849
 21
-157.9422304429776
 31
0.0
  0
LINE
  5
3DE
330
1F
100
AcDbEntity
  8
0
  6
CENTER
 62
     2
100
AcDbLine
 10
-122.4108273501849
 20
-169.9422304429776
 30
0.0
 11
-122.4108273501849
 21
-145.9422304429777
 31
0.0
  0
LINE
  5
3DF
330
1F
100
AcDbEntity
  8
0
  6
CENTER
 62
     2
100
AcDbLine
 10
-315.9108273501896
 20
341.1586587157012
 30
0.0
 11
-292.9108273501896
 21
341.1586587157012
 31
0.0
  0
LINE
  5
3E0
330
1F
100
AcDbEntity
  8
0
  6
CENTER
 62
     2
100
AcDbLine
 10
-315.9108273501896
 20
141.1586587157016
 30
0.0
 11
-292.9108273501896
 21
141.1586587157016
 31
0.0
  0
LINE
  5
3E1
330
1F
100
AcDbEntity
  8
0
  6
CENTER
 62
     2
100
AcDbLine
 10
35.58917264981281
 20
-99.94223044297792
 30
0.0
 11
199.5891726498157
 21
-99.94223044297792
 31
0.0
  0
LINE
  5
3E2
330
1F
100
AcDbEntity
  8
0
  6
CENTER
 62
     2
100
AcDbLine
 10
180.5891726498195
 20
-224.9422304429777
 30
0.0
 11
266.5891726498189
 21
-224.9422304429777
 31
0.0
  0
LINE
  5
3E3
330
1F
100
AcDbEntity
  8
0
  6
CENTER
 62
     2
100
AcDbLine
 10
-489.4108273501869
 20
-202.9422304429776
 30
0.0
 11
-489.4108273501869
 21
-174.9422304429776
 31
0.0
  0
LINE
  5
3E4
330
1F
100
AcDbEntity
  8
0
  6
CENTER
 62
     2
100
AcDbLine
 10
80.58917264981358
 20
-202.9422304429776
 30
0.0
 11
80.58917264981358
 21
-170.9422304429776
 31
0.0
  0
LINE
  5
3E5
330
1F
100
AcDbEntity
  8
0
  6
CENTER
 62
     2
100
AcDbLine
 10
-509.410827350188
 20
241.1586587157015
 30
0.0
 11
-360.3651767571587
 21
241.1586587157015
 31
0.0
  0
LINE
  5
3E6
330
1F
100
AcDbEntity
  8
0
  6
CENTER
 62
     2
100
AcDbLine
 10
-343.8672609780414
 20
241.1586587157015
 30
0.0
 11
-218.5465545789773
 21
241.1586587157015
 31
0.0
  0
LINE
  5
3E7
330
1F
100
AcDbEntity
  8
0
  6
CENTER
 62
     2
100
AcDbLine
 10
-201.0968359664494
 20
241.1586587157015
 30
0.0
 11
197.5891726498169
 21
241.1586587157015
 31
0.0
  0
LINE
  5
3E8
330
1F
100
AcDbEntity
  8
0
  6
CENTER
 62
     2
100
AcDbLine
 10
421.7249147563524
 20
-200.9422304429776
 30
0.0
 11
421.7249147563524
 21
-67.64223044297816
 31
0.0
  0
LINE
  5
3E9
330
1F
100
AcDbEntity
  8
0
  6
CENTER
 62
     2
100
AcDbLine
 10
506.7571774684271
 20
-157.9422304429777
 30
0.0
 11
360.0547233428713
 21
-157.9422304429777
 31
0.0
  0
LINE
  5
3EA
330
1F
100
AcDbEntity
  8
0
  6
CENTER
 62
     2
100
AcDbLine
 10
401.7249147563525
 20
-99.94223044297793
 30
0.0
 11
441.7249147563523
 21
-99.94223044297793
 31
0.0
  0
LINE
  5
3EB
330
1F
100
AcDbEntity
  8
0
  6
CENTER
 62
     2
100
AcDbLine
 10
323.7097988021557
 20
326.7442443179712
 30
0.0
 11
533.7097988021557
 21
326.7442443179712
 31
0.0
  0
LINE
  5
3EC
330
1F
100
AcDbEntity
  8
0
 62
     7
100
AcDbLine
 10
159.5891726498169
 20
-83.94223044297794
 30
0.0
 11
139.5891726498182
 21
-83.94223044297794
 31
0.0
  0
LINE
  5
3ED
330
1F
100
AcDbEntity
  8
0
 62
     7
100
AcDbLine
 10
139.5891726498182
 20
-115.9422304429779
 30
0.0
 11
159.5891726498169
 21
-115.9422304429779
 31
0.0
  0
LINE
  5
3EE
330
1F
100
AcDbEntity
  8
0
 62
     7
100
AcDbLine
 10
171.5891726498195
 20
-80.94223044297796
 30
0.0
 11
167.6022872634007
 21
-80.94223044297796
 31
0.0
  0
LINE
  5
3EF
330
1F
100
AcDbEntity
  8
0
 62
     7
100
AcDbLine
 10
183.5891726498195
 20
-215.9422304429777
 30
0.0
 11
183.5891726498195
 21
-233.9422304429777
 31
0.0
  0
LINE
  5
3F0
330
1F
100
AcDbEntity
  8
0
 62
     7
100
AcDbLine
 10
183.5891726498195
 20
-233.9422304429777
 30
0.0
 11
168.5761434725511
 21
-233.9422304429777
 31
0.0
  0
LINE
  5
3F1
330
1F
100
AcDbEntity
  8
0
 62
     7
100
AcDbLine
 10
183.5891726498195
 20
-215.9422304429777
 30
0.0
 11
175.5891726498195
 21
-215.9422304429777
 31
0.0
  0
ARC
  5
3F2
330
1F
100
AcDbEntity
  8
0
 62
     7
100
AcDbCircle
 10
168.5761434725511
 20
-231.9422304429847
 30
0.0
 40
1.999999999999997
100
AcDbArc
 50
180.374476887463
 51
270.0
  0
ARC
  5
3F3
330
1F
100
AcDbEntity
  8
0
 62
     7
100
AcDbCircle
 10
175.5891726498195
 20
-213.9422304429777
 30
0.0
 40
1.999999999999997
100
AcDbArc
 50
180.0
 51
270.0
  0
ARC
  5
3F4
330
1F
100
AcDbEntity
  8
0
 62
     7
100
AcDbCircle
 10
175.5891726498195
 20
-217.9422304429777
 30
0.0
 40
1.999999999999997
100
AcDbArc
 50
180.0
 51
270.0
  0
ARC
  5
3F5
330
1F
100
AcDbEntity
  8
0
 62
     7
100
AcDbCircle
 10
167.6022872634007
 20
-82.94223044297794
 30
0.0
 40
1.999999999999997
100
AcDbArc
 50
90.0
 51
149.9999999999889
  0
ARC
  5
3F6
330
1F
100
AcDbEntity
  8
0
 62
     7
100
AcDbCircle
 10
171.5891726498195
 20
-82.94223044297794
 30
0.0
 40
1.999999999999997
100
AcDbArc
 50
0.0
 51
90.0
  0
LINE
  5
3F7
330
1F
100
AcDbEntity
  8
0
 62
     7
100
AcDbLine
 10
159.5891726498196
 20
-116.9422304429779
 30
0.0
 11
163.8374959447352
 21
-116.9422304429779
 31
0.0
  0
LINE
  5
3F8
330
1F
100
AcDbEntity
  8
0
 62
     7
100
AcDbLine
 10
159.5891726498196
 20
-82.94223044297794
 30
0.0
 11
164.138185648263
 21
-82.94223044297794
 31
0.0
  0
ARC
  5
3F9
330
1F
100
AcDbEntity
  8
0
 62
     7
100
AcDbCircle
 10
164.138185648263
 20
-80.94223044297711
 30
0.0
 40
1.999999999999997
100
AcDbArc
 50
270.0
 51
329.9999999999758
  0
ARC
  5
3FA
330
1F
100
AcDbEntity
  8
0
 62
     7
100
AcDbCircle
 10
163.8374959447352
 20
-118.9422304429776
 30
0.0
 40
1.999999999999997
100
AcDbArc
 50
0.374476886837655
 51
90.0
  0
LINE
  5
3FB
330
1F
100
AcDbEntity
  8
0
 62
     7
100
AcDbLine
 10
138.5891726498182
 20
-84.94223044297794
 30
0.0
 11
139.5891726498182
 21
-83.94223044297794
 31
0.0
  0
LINE
  5
3FC
330
1F
100
AcDbEntity
  8
0
 62
     7
100
AcDbLine
 10
138.5891726498182
 20
-114.9422304429779
 30
0.0
 11
139.5891726498182
 21
-115.9422304429779
 31
0.0
  0
LINE
  5
3FD
330
1F
100
AcDbEntity
  8
0
 62
     7
100
AcDbLine
 10
138.5891726498182
 20
-84.94223044297794
 30
0.0
 11
138.5891726498182
 21
-88.94223044297794
 31
0.0
  0
LINE
  5
3FE
330
1F
100
AcDbEntity
  8
0
 62
     7
100
AcDbLine
 10
138.5891726498182
 20
-110.9422304429779
 30
0.0
 11
138.5891726498182
 21
-114.9422304429779
 31
0.0
  0
LINE
  5
3FF
330
1F
100
AcDbEntity
  8
0
 62
     7
100
AcDbLine
 10
159.5891726498196
 20
-82.94223044297794
 30
0.0
 11
159.5891726498196
 21
-83.94223044297794
 31
0.0
  0
LINE
  5
400
330
1F
100
AcDbEntity
  8
0
 62
     7
100
AcDbLine
 10
159.5891726498196
 20
-115.9422304429779
 30
0.0
 11
159.5891726498196
 21
-116.9422304429779
 31
0.0
  0
LINE
  5
401
330
1F
100
AcDbEntity
  8
0
 62
     7
100
AcDbLine
 10
166.5761861897951
 20
-231.9553020592377
 30
0.0
 11
165.8374532274913
 21
-118.9291588267464
 31
0.0
  0
LINE
  5
402
330
1F
100
AcDbEntity
  8
0
 62
     7
100
AcDbLine
 10
173.5891726498195
 20
-82.94223044297794
 30
0.0
 11
173.5891726498195
 21
-89.44223044297794
 31
0.0
  0
LINE
  5
403
330
1F
100
AcDbEntity
  8
0
 62
     7
100
AcDbLine
 10
173.5891726498195
 20
-110.4422304429779
 30
0.0
 11
173.5891726498195
 21
-217.9422304429777
 31
0.0
  0
LINE
  5
404
330
1F
100
AcDbEntity
  8
0
 62
     7
100
AcDbLine
 10
490.7249147563526
 20
-146.9422304429778
 30
0.0
 11
490.7249147563526
 21
-168.9422304429777
 31
0.0
  0
LINE
  5
405
330
1F
100
AcDbEntity
  8
0
 62
     7
100
AcDbLine
 10
498.7249147563522
 20
-168.9422304429777
 30
0.0
 11
490.7249147563526
 21
-168.9422304429777
 31
0.0
  0
LINE
  5
406
330
1F
100
AcDbEntity
  8
0
 62
     7
100
AcDbLine
 10
490.7249147563526
 20
-146.9422304429778
 30
0.0
 11
498.7249147563522
 21
-146.9422304429778
 31
0.0
  0
LINE
  5
407
330
1F
100
AcDbEntity
  8
0
 62
     7
100
AcDbLine
 10
469.7249147563526
 20
-146.9422304429778
 30
0.0
 11
480.7249147563526
 21
-146.9422304429778
 31
0.0
  0
LINE
  5
408
330
1F
100
AcDbEntity
  8
0
 62
     7
100
AcDbLine
 10
480.7249147563526
 20
-146.9422304429778
 30
0.0
 11
480.7249147563526
 21
-168.9422304429777
 31
0.0
  0
LINE
  5
409
330
1F
100
AcDbEntity
  8
0
 62
     7
100
AcDbLine
 10
480.7249147563526
 20
-168.9422304429777
 30
0.0
 11
474.2249147563521
 21
-168.9422304429777
 31
0.0
  0
ARC
  5
40A
330
1F
100
AcDbEntity
  8
0
 62
     7
100
AcDbCircle
 10
438.7249147563575
 20
-157.9422304429779
 30
0.0
 40
60.99999999999461
100
AcDbArc
 50
349.61114218453
 51
10.38885781547072
  0
LINE
  5
40B
330
1F
100
AcDbEntity
  8
0
 62
     7
100
AcDbLine
 10
498.7249147563522
 20
-168.9422304429777
 30
0.0
 11
498.7249147563522
 21
-146.9422304429778
 31
0.0
  0
ARC
  5
40C
330
1F
100
AcDbEntity
  8
0
 62
     7
100
AcDbCircle
 10
485.7249147563524
 20
-146.4144526652
 30
0.0
 40
5.027777777777708
100
AcDbArc
 50
186.0255750083666
 51
353.9744249916333
  0
ARC
  5
40D
330
1F
100
AcDbEntity
  8
0
 62
     7
100
AcDbCircle
 10
485.7249147563524
 20
-169.4700082207553
 30
0.0
 40
5.02777777777768
100
AcDbArc
 50
6.025575008365395
 51
173.9744249916346
  0
LINE
  5
40E
330
1F
100
AcDbEntity
  8
0
 62
     7
100
AcDbLine
 10
369.2249147563525
 20
-166.8544082694687
 30
0.0
 11
366.724914756353
 21
-166.184535288391
 31
0.0
  0
LINE
  5
40F
330
1F
100
AcDbEntity
  8
0
 62
     7
100
AcDbLine
 10
366.724914756353
 20
-149.6999255975663
 30
0.0
 11
372.724914756353
 21
-148.0922304429796
 31
0.0
  0
LINE
  5
410
330
1F
100
AcDbEntity
  8
0
 62
     7
100
AcDbLine
 10
372.724914756353
 20
-148.0922304429796
 30
0.0
 11
373.7249147563525
 21
-148.0922304429778
 31
0.0
  0
LINE
  5
411
330
1F
100
AcDbEntity
  8
0
 62
     7
100
AcDbLine
 10
366.724914756353
 20
-149.6999255975663
 30
0.0
 11
366.724914756353
 21
-166.184535288391
 31
0.0
  0
LINE
  5
412
330
1F
100
AcDbEntity
  8
0
 62
     7
100
AcDbLine
 10
372.724914756353
 20
-150.9422304429772
 30
0.0
 11
372.724914756353
 21
-148.0922304429796
 31
0.0
  0
ARC
  5
413
330
1F
100
AcDbEntity
  8
0
 62
     7
100
AcDbCircle
 10
263.9020598158387
 20
-217.9422304429777
 30
0.0
 40
4.0
100
AcDbArc
 50
11.21227141764959
 51
90.0
  0
ARC
  5
414
330
1F
100
AcDbEntity
  8
0
 62
     7
100
AcDbCircle
 10
263.9020598158386
 20
-231.9422304429777
 30
0.0
 40
4.0
100
AcDbArc
 50
270.0
 51
348.7877285823506
  0
LINE
  5
415
330
1F
100
AcDbEntity
  8
0
 62
     7
100
AcDbLine
 10
217.5891726498193
 20
-213.9422304429777
 30
0.0
 11
195.5059115603951
 21
-214.8623663217038
 31
0.0
  0
LINE
  5
416
330
1F
100
AcDbEntity
  8
0
 62
     7
100
AcDbLine
 10
195.5059115603951
 20
-235.0220945642517
 30
0.0
 11
217.5891726498197
 21
-235.9422304429777
 31
0.0
  0
ARC
  5
417
330
1F
100
AcDbEntity
  8
0
 62
     7
100
AcDbCircle
 10
228.5891726498194
 20
-224.9422304429777
 30
0.0
 40
40.00000000000003
100
AcDbArc
 50
348.7877285823503
 51
11.21227141764962
  0
LINE
  5
418
330
1F
100
AcDbEntity
  8
0
 62
     7
100
AcDbLine
 10
193.0891726498194
 20
-216.4422304429777
 30
0.0
 11
193.0891726498194
 21
-233.4422304429777
 31
0.0
  0
LINE
  5
419
330
1F
100
AcDbEntity
  8
0
 62
     7
100
AcDbLine
 10
184.0891726498195
 20
-216.4422304429777
 30
0.0
 11
184.0891726498195
 21
-219.4650048679261
 31
0.0
  0
LINE
  5
41A
330
1F
100
AcDbEntity
  8
0
 62
     7
100
AcDbLine
 10
183.5891726498195
 20
-219.4650048679261
 30
0.0
 11
191.0891726498195
 21
-219.4650048679261
 31
0.0
  0
LINE
  5
41B
330
1F
100
AcDbEntity
  8
0
 62
     7
100
AcDbLine
 10
183.5891726498195
 20
-230.4194560180294
 30
0.0
 11
191.0891726498195
 21
-230.4194560180294
 31
0.0
  0
LINE
  5
41C
330
1F
100
AcDbEntity
  8
0
 62
     7
100
AcDbLine
 10
263.9020598158387
 20
-213.9422304429778
 30
0.0
 11
217.5891726498193
 21
-213.9422304429777
 31
0.0
  0
LINE
  5
41D
330
1F
100
AcDbEntity
  8
0
 62
     7
100
AcDbLine
 10
263.9020598158386
 20
-235.9422304429777
 30
0.0
 11
217.5891726498197
 21
-235.9422304429777
 31
0.0
  0
LINE
  5
41E
330
1F
100
AcDbEntity
  8
0
 62
     7
100
AcDbLine
 10
184.0891726498195
 20
-216.4422304429777
 30
0.0
 11
183.5891726498195
 21
-216.9422304429777
 31
0.0
  0
LINE
  5
41F
330
1F
100
AcDbEntity
  8
0
 62
     7
100
AcDbLine
 10
193.0891726498195
 20
-216.4422304429777
 30
0.0
 11
193.5891726498195
 21
-216.9422304429777
 31
0.0
  0
LINE
  5
420
330
1F
100
AcDbEntity
  8
0
 62
     7
100
AcDbLine
 10
193.0891726498194
 20
-233.4422304429777
 30
0.0
 11
193.5891726498194
 21
-232.9422304429777
 31
0.0
  0
LINE
  5
421
330
1F
100
AcDbEntity
  8
0
 62
     7
100
AcDbLine
 10
183.5891726498195
 20
-232.9422304429777
 30
0.0
 11
184.0891726498195
 21
-233.4422304429777
 31
0.0
  0
LINE
  5
422
330
1F
100
AcDbEntity
  8
0
 62
     7
100
AcDbLine
 10
184.0891726498195
 20
-216.4422304429777
 30
0.0
 11
193.0891726498195
 21
-216.4422304429777
 31
0.0
  0
LINE
  5
423
330
1F
100
AcDbEntity
  8
0
 62
     7
100
AcDbLine
 10
184.0891726498195
 20
-233.4422304429777
 30
0.0
 11
193.0891726498195
 21
-233.4422304429777
 31
0.0
  0
LINE
  5
424
330
1F
100
AcDbEntity
  8
0
 62
     7
100
AcDbLine
 10
184.0891726498195
 20
-233.4422304429777
 30
0.0
 11
184.0891726498195
 21
-230.4194560180294
 31
0.0
  0
LINE
  5
425
330
1F
100
AcDbEntity
  8
0
 62
     7
100
AcDbLine
 10
193.5891726498195
 20
-233.0238284180669
 30
0.0
 11
193.5891726498195
 21
-216.8606324678885
 31
0.0
  0
ARC
  5
426
330
1F
100
AcDbEntity
  8
0
 62
     7
100
AcDbCircle
 10
195.5891726498195
 20
-216.8606324678885
 30
0.0
 40
2.0
100
AcDbArc
 50
92.38594403038859
 51
180.0
  0
ARC
  5
427
330
1F
100
AcDbEntity
  8
0
 62
     7
100
AcDbCircle
 10
195.5891726498195
 20
-233.0238284180669
 30
0.0
 40
2.0
100
AcDbArc
 50
180.0
 51
267.6140559696106
  0
LINE
  5
428
330
1F
100
AcDbEntity
  8
0
 62
     7
100
AcDbLine
 10
191.0891726498195
 20
-230.4194560180294
 30
0.0
 11
191.0891726498195
 21
-219.4650048679261
 31
0.0
  0
LINE
  5
429
330
1F
100
AcDbEntity
  8
0
 62
     7
100
AcDbLine
 10
217.5891726498193
 20
-213.9422304429777
 30
0.0
 11
217.5891726498193
 21
-235.9422304429777
 31
0.0
  0
LINE
  5
42A
330
1F
100
AcDbEntity
  8
0
 62
     7
100
AcDbLine
 10
323.7097988021557
 20
341.7442443179712
 30
0.0
 11
323.7097988021557
 21
311.7442443179712
 31
0.0
  0
LINE
  5
42B
330
1F
100
AcDbEntity
  8
0
 62
     7
100
AcDbLine
 10
408.7097988021557
 20
341.7442443179712
 30
0.0
 11
408.7097988021557
 21
311.7442443179712
 31
0.0
  0
LINE
  5
42C
330
1F
100
AcDbEntity
  8
0
 62
     7
100
AcDbLine
 10
323.7097988021557
 20
341.7442443179712
 30
0.0
 11
408.7097988021557
 21
341.7442443179712
 31
0.0
  0
LINE
  5
42D
330
1F
100
AcDbEntity
  8
0
 62
     7
100
AcDbLine
 10
323.7097988021557
 20
311.7442443179712
 30
0.0
 11
408.7097988021557
 21
311.7442443179712
 31
0.0
  0
LINE
  5
42E
330
1F
100
AcDbEntity
  8
0
 62
     7
100
AcDbLine
 10
412.7097988021557
 20
315.7442443179712
 30
0.0
 11
506.1117225908021
 21
315.7442443179712
 31
0.0
  0
LINE
  5
42F
330
1F
100
AcDbEntity
  8
0
 62
     7
100
AcDbLine
 10
412.7097988021557
 20
337.7442443179712
 30
0.0
 11
506.111722590802
 21
337.7442443179712
 31
0.0
  0
LINE
  5
430
330
1F
100
AcDbEntity
  8
0
 62
     7
100
AcDbLine
 10
408.7097988021557
 20
311.7442443179712
 30
0.0
 11
412.7097988021557
 21
315.7442443179712
 31
0.0
  0
LINE
  5
431
330
1F
100
AcDbEntity
  8
0
 62
     7
100
AcDbLine
 10
408.7097988021557
 20
341.7442443179712
 30
0.0
 11
412.7097988021557
 21
337.7442443179712
 31
0.0
  0
LINE
  5
432
330
1F
100
AcDbEntity
  8
0
 62
     7
100
AcDbLine
 10
412.7097988021557
 20
315.7442443179712
 30
0.0
 11
412.7097988021557
 21
337.7442443179712
 31
0.0
  0
LINE
  5
433
330
1F
100
AcDbEntity
  8
0
 62
     7
100
AcDbLine
 10
533.7097988021557
 20
335.7442443179712
 30
0.0
 11
533.7097988021557
 21
317.7442443179712
 31
0.0
  0
LINE
  5
434
330
1F
100
AcDbEntity
  8
0
 62
     7
100
AcDbLine
 10
533.7097988021557
 20
317.7442443179712
 30
0.0
 11
532.2097988021557
 21
316.2442443179712
 31
0.0
  0
LINE
  5
435
330
1F
100
AcDbEntity
  8
0
 62
     7
100
AcDbLine
 10
532.2097988021557
 20
337.2442443179712
 30
0.0
 11
533.7097988021557
 21
335.7442443179712
 31
0.0
  0
LINE
  5
436
330
1F
100
AcDbEntity
  8
0
 62
     7
100
AcDbLine
 10
532.2097988021557
 20
332.7354091358941
 30
0.0
 11
532.2097988021557
 21
331.2163896821253
 31
0.0
  0
LINE
  5
437
330
1F
100
AcDbEntity
  8
0
 62
     7
100
AcDbLine
 10
532.2097988021557
 20
320.7530795000483
 30
0.0
 11
532.2097988021557
 21
322.2720989538171
 31
0.0
  0
LINE
  5
438
330
1F
100
AcDbEntity
  8
0
 62
     7
100
AcDbLine
 10
508.7097988021558
 20
337.2442443179712
 30
0.0
 11
532.2097988021557
 21
337.2442443179712
 31
0.0
  0
LINE
  5
439
330
1F
100
AcDbEntity
  8
0
 62
     7
100
AcDbLine
 10
508.7097988021558
 20
316.2442443179712
 30
0.0
 11
532.2097988021557
 21
316.2442443179712
 31
0.0
  0
LINE
  5
43A
330
1F
100
AcDbEntity
  8
0
 62
     7
100
AcDbLine
 10
532.2097988021557
 20
320.7530795000483
 30
0.0
 11
508.7097988021558
 21
320.7530795000483
 31
0.0
  0
LINE
  5
43B
330
1F
100
AcDbEntity
  8
0
 62
     7
100
AcDbLine
 10
532.2097988021557
 20
322.2720989538171
 30
0.0
 11
508.7097988021558
 21
322.2720989538171
 31
0.0
  0
LINE
  5
43C
330
1F
100
AcDbEntity
  8
0
 62
     7
100
AcDbLine
 10
532.2097988021557
 20
331.2163896821253
 30
0.0
 11
508.7097988021558
 21
331.2163896821253
 31
0.0
  0
LINE
  5
43D
330
1F
100
AcDbEntity
  8
0
 62
     7
100
AcDbLine
 10
508.7097988021558
 20
332.7354091358941
 30
0.0
 11
532.2097988021557
 21
332.7354091358941
 31
0.0
  0
LINE
  5
43E
330
1F
100
AcDbEntity
  8
0
 62
     7
100
AcDbLine
 10
508.7097988021558
 20
337.2442443179712
 30
0.0
 11
508.7097988021558
 21
316.2442443179712
 31
0.0
  0
LINE
  5
43F
330
1F
100
AcDbEntity
  8
0
 62
     7
100
AcDbLine
 10
508.7097988021558
 20
316.2442443179712
 30
0.0
 11
506.1117225908021
 21
315.7442443179713
 31
0.0
  0
LINE
  5
440
330
1F
100
AcDbEntity
  8
0
 62
     7
100
AcDbLine
 10
506.1117225908021
 20
315.7442443179713
 30
0.0
 11
506.1117225908021
 21
337.7442443179712
 31
0.0
  0
LINE
  5
441
330
1F
100
AcDbEntity
  8
0
 62
     7
100
AcDbLine
 10
506.1117225908021
 20
337.7442443179712
 30
0.0
 11
508.7097988021558
 21
337.2442443179712
 31
0.0
  0
ARC
  5
442
330
1F
100
AcDbEntity
  8
0
 62
     7
100
AcDbCircle
 10
530.1685994647636
 20
334.9898267269326
 30
0.0
 40
3.041199337392026
100
AcDbArc
 50
312.1583853430251
 51
47.84161465697491
  0
ARC
  5
443
330
1F
100
AcDbEntity
  8
0
 62
     7
100
AcDbCircle
 10
522.7097567230932
 20
326.7442443179712
 30
0.0
 40
10.50004207906252
100
AcDbArc
 50
334.7912860464572
 51
25.20871395354283
  0
ARC
  5
444
330
1F
100
AcDbEntity
  8
0
 62
     7
100
AcDbCircle
 10
530.1685994647636
 20
318.4986619090098
 30
0.0
 40
3.041199337392026
100
AcDbArc
 50
312.1583853430251
 51
47.84161465697491
  0
LINE
  5
445
330
1F
100
AcDbEntity
  8
0
 62
     7
100
AcDbLine
 10
283.7621507665593
 20
337.7441197387122
 30
0.0
 11
274.157451267128
 21
332.19884389723
 31
0.0
  0
LINE
  5
446
330
1F
100
AcDbEntity
  8
0
 62
     7
100
AcDbLine
 10
274.2098032315317
 20
332.2895201594533
 30
0.0
 11
274.2098032315317
 21
321.198968476489
 31
0.0
  0
LINE
  5
447
330
1F
100
AcDbEntity
  8
0
 62
     7
100
AcDbLine
 10
274.1574512671279
 20
321.2896447387124
 30
0.0
 11
283.7621507665594
 21
315.7443688972301
 31
0.0
  0
LINE
  5
448
330
1F
100
AcDbEntity
  8
0
 62
     7
100
AcDbLine
 10
283.6574468377519
 20
315.7443688972301
 30
0.0
 11
293.2621463371832
 21
321.2896447387122
 31
0.0
  0
LINE
  5
449
330
1F
100
AcDbEntity
  8
0
 62
     7
100
AcDbLine
 10
293.2097943727795
 20
321.1989684764889
 30
0.0
 11
293.2097943727796
 21
332.2895201594532
 31
0.0
  0
LINE
  5
44A
330
1F
100
AcDbEntity
  8
0
 62
     7
100
AcDbLine
 10
293.2621463371833
 20
332.19884389723
 30
0.0
 11
283.657446837752
 21
337.7441197387122
 31
0.0
  0
CIRCLE
  5
44B
330
1F
100
AcDbEntity
  8
0
 62
     7
100
AcDbCircle
 10
283.7097988021556
 20
326.7442443179712
 30
0.0
 40
15.0
  0
CIRCLE
  5
44C
330
1F
100
AcDbEntity
  8
0
 62
     7
100
AcDbCircle
 10
283.7097988021556
 20
326.7442443179712
 30
0.0
 40
11.0
  0
CIRCLE
  5
44D
330
1F
100
AcDbEntity
  8
0
 62
     7
100
AcDbCircle
 10
283.7097988021556
 20
326.7442443179712
 30
0.0
 40
9.5
  0
LINE
  5
44E
330
1F
100
AcDbEntity
  8
LAYER0002
 62
     7
100
AcDbLine
 10
191.0891726498195
 20
-230.4194560180294
 30
0.0
 11
183.5891726498195
 21
-219.4650048679261
 31
0.0
  0
LINE
  5
44F
330
1F
100
AcDbEntity
  8
LAYER0002
 62
     7
100
AcDbLine
 10
191.0891726498195
 20
-219.4650048679261
 30
0.0
 11
183.5891726498195
 21
-230.4194560180294
 31
0.0
  0
INSERT
  5
450
330
1F
100
AcDbEntity
  8
LAYER0014
  6
CONTINUOUS
100
AcDbBlockReference
  2
DA_IMAGEDIMGROUP_1
 10
0.0
 20
0.0
 30
0.0
  0
INSERT
  5
451
330
1F
100
AcDbEntity
  8
LAYER0014
  6
CONTINUOUS
100
AcDbBlockReference
  2
DA_IMAGEDIMGROUP_2
 10
0.0
 20
0.0
 30
0.0
  0
INSERT
  5
452
330
1F
100
AcDbEntity
  8
LAYER0014
  6
CONTINUOUS
100
AcDbBlockReference
  2
DA_IMAGEDIMGROUP_3
 10
0.0
 20
0.0
 30
0.0
  0
INSERT
  5
453
330
1F
100
AcDbEntity
  8
LAYER0014
  6
CONTINUOUS
100
AcDbBlockReference
  2
DA_IMAGEDIMGROUP_4
 10
0.0
 20
0.0
 30
0.0
  0
INSERT
  5
454
330
1F
100
AcDbEntity
  8
LAYER0014
  6
CONTINUOUS
100
AcDbBlockReference
  2
DA_IMAGEDIMGROUP_5
 10
0.0
 20
0.0
 30
0.0
  0
INSERT
  5
455
330
1F
100
AcDbEntity
  8
LAYER0014
  6
CONTINUOUS
100
AcDbBlockReference
  2
DA_IMAGEDIMGROUP_6
 10
0.0
 20
0.0
 30
0.0
  0
INSERT
  5
456
330
1F
100
AcDbEntity
  8
LAYER0014
  6
CONTINUOUS
100
AcDbBlockReference
  2
DA_IMAGEDIMGROUP_7
 10
0.0
 20
0.0
 30
0.0
  0
INSERT
  5
457
330
1F
100
AcDbEntity
  8
LAYER0014
  6
CONTINUOUS
100
AcDbBlockReference
  2
DA_IMAGEDIMGROUP_8
 10
0.0
 20
0.0
 30
0.0
  0
INSERT
  5
458
330
1F
100
AcDbEntity
  8
LAYER0014
  6
CONTINUOUS
100
AcDbBlockReference
  2
DA_IMAGEDIMGROUP_9
 10
0.0
 20
0.0
 30
0.0
  0
INSERT
  5
459
330
1F
100
AcDbEntity
  8
LAYER0014
  6
CONTINUOUS
100
AcDbBlockReference
  2
DA_IMAGEDIMGROUP_10
 10
0.0
 20
0.0
 30
0.0
  0
INSERT
  5
45A
330
1F
100
AcDbEntity
  8
LAYER0014
  6
CONTINUOUS
100
AcDbBlockReference
  2
DA_IMAGEDIMGROUP_11
 10
0.0
 20
0.0
 30
0.0
  0
INSERT
  5
45B
330
1F
100
AcDbEntity
  8
LAYER0014
  6
CONTINUOUS
100
AcDbBlockReference
  2
DA_IMAGEDIMGROUP_12
 10
0.0
 20
0.0
 30
0.0
  0
INSERT
  5
45C
330
1F
100
AcDbEntity
  8
LAYER0014
  6
CONTINUOUS
100
AcDbBlockReference
  2
DA_IMAGEDIMGROUP_13
 10
0.0
 20
0.0
 30
0.0
  0
INSERT
  5
45D
330
1F
100
AcDbEntity
  8
LAYER0014
  6
CONTINUOUS
100
AcDbBlockReference
  2
DA_IMAGEDIMGROUP_14
 10
0.0
 20
0.0
 30
0.0
  0
INSERT
  5
45E
330
1F
100
AcDbEntity
  8
LAYER0014
  6
CONTINUOUS
100
AcDbBlockReference
  2
DA_IMAGEDIMGROUP_15
 10
0.0
 20
0.0
 30
0.0
  0
INSERT
  5
45F
330
1F
100
AcDbEntity
  8
LAYER0014
  6
CONTINUOUS
100
AcDbBlockReference
  2
DA_IMAGEDIMGROUP_16
 10
0.0
 20
0.0
 30
0.0
  0
INSERT
  5
460
330
1F
100
AcDbEntity
  8
LAYER0014
  6
CONTINUOUS
100
AcDbBlockReference
  2
DA_IMAGEDIMGROUP_17
 10
0.0
 20
0.0
 30
0.0
  0
INSERT
  5
461
330
1F
100
AcDbEntity
  8
LAYER0014
  6
CONTINUOUS
100
AcDbBlockReference
  2
DA_IMAGEDIMGROUP_18
 10
0.0
 20
0.0
 30
0.0
  0
INSERT
  5
462
330
1F
100
AcDbEntity
  8
LAYER0014
  6
CONTINUOUS
100
AcDbBlockReference
  2
DA_IMAGEDIMGROUP_19
 10
0.0
 20
0.0
 30
0.0
  0
INSERT
  5
463
330
1F
100
AcDbEntity
  8
LAYER0014
  6
CONTINUOUS
100
AcDbBlockReference
  2
DA_IMAGEDIMGROUP_20
 10
0.0
 20
0.0
 30
0.0
  0
INSERT
  5
464
330
1F
100
AcDbEntity
  8
LAYER0014
  6
CONTINUOUS
100
AcDbBlockReference
  2
DA_IMAGEDIMGROUP_21
 10
0.0
 20
0.0
 30
0.0
  0
INSERT
  5
465
330
1F
100
AcDbEntity
  8
LAYER0014
  6
CONTINUOUS
100
AcDbBlockReference
  2
DA_IMAGEDIMGROUP_22
 10
0.0
 20
0.0
 30
0.0
  0
INSERT
  5
466
330
1F
100
AcDbEntity
  8
LAYER0014
  6
CONTINUOUS
100
AcDbBlockReference
  2
DA_IMAGEDIMGROUP_23
 10
0.0
 20
0.0
 30
0.0
  0
INSERT
  5
467
330
1F
100
AcDbEntity
  8
LAYER0014
  6
CONTINUOUS
100
AcDbBlockReference
  2
DA_IMAGEDIMGROUP_24
 10
0.0
 20
0.0
 30
0.0
  0
INSERT
  5
468
330
1F
100
AcDbEntity
  8
LAYER0014
  6
CONTINUOUS
100
AcDbBlockReference
  2
DA_IMAGEDIMGROUP_25
 10
0.0
 20
0.0
 30
0.0
  0
INSERT
  5
469
330
1F
100
AcDbEntity
  8
LAYER0014
  6
CONTINUOUS
100
AcDbBlockReference
  2
DA_IMAGEDIMGROUP_26
 10
0.0
 20
0.0
 30
0.0
  0
INSERT
  5
46A
330
1F
100
AcDbEntity
  8
LAYER0014
  6
CONTINUOUS
100
AcDbBlockReference
  2
DA_IMAGEDIMGROUP_27
 10
0.0
 20
0.0
 30
0.0
  0
INSERT
  5
46B
330
1F
100
AcDbEntity
  8
0
  6
CONTINUOUS
100
AcDbBlockReference
  2
GROUP_1
 10
0.0
 20
0.0
 30
0.0
  0
INSERT
  5
46C
330
1F
100
AcDbEntity
  8
0
  6
CONTINUOUS
100
AcDbBlockReference
  2
GROUP_2
 10
0.0
 20
0.0
 30
0.0
  0
INSERT
  5
46D
330
1F
100
AcDbEntity
  8
0
  6
CONTINUOUS
100
AcDbBlockReference
  2
GROUP_3
 10
0.0
 20
0.0
 30
0.0
  0
LINE
  5
46E
330
1F
100
AcDbEntity
  8
0
  6
DASHED2
 62
     5
100
AcDbLine
 10
323.7097988021557
 20
337.7441197387122
 30
0.0
 11
358.7097988021557
 21
337.7441197387122
 31
0.0
  0
LINE
  5
46F
330
1F
100
AcDbEntity
  8
0
  6
DASHED2
 62
     5
100
AcDbLine
 10
323.7097988021557
 20
315.7443688972301
 30
0.0
 11
358.7097988021557
 21
315.7443688972301
 31
0.0
  0
LINE
  5
470
330
1F
100
AcDbEntity
  8
0
  6
DASHED2
 62
     5
100
AcDbLine
 10
343.7097988021557
 20
337.7441197387122
 30
0.0
 11
343.7097988021557
 21
315.7443688972301
 31
0.0
  0
LINE
  5
471
330
1F
100
AcDbEntity
  8
0
  6
DASHED2
 62
     5
100
AcDbLine
 10
343.7097988021557
 20
332.19884389723
 30
0.0
 11
358.7097988021557
 21
332.19884389723
 31
0.0
  0
LINE
  5
472
330
1F
100
AcDbEntity
  8
0
  6
DASHED2
 62
     5
100
AcDbLine
 10
343.7097988021557
 20
321.2896447387122
 30
0.0
 11
358.7097988021557
 21
321.2896447387122
 31
0.0
  0
LINE
  5
473
330
1F
100
AcDbEntity
  8
0
  6
DASHED2
 62
     5
100
AcDbLine
 10
358.7097988021557
 20
315.2442443179712
 30
0.0
 11
358.7097988021557
 21
338.2442443179712
 31
0.0
  0
LINE
  5
474
330
1F
100
AcDbEntity
  8
0
  6
DASHED2
 62
     5
100
AcDbLine
 10
373.7097988021557
 20
336.2442443179712
 30
0.0
 11
398.7097988021557
 21
336.2442443179712
 31
0.0
  0
LINE
  5
475
330
1F
100
AcDbEntity
  8
0
  6
DASHED2
 62
     5
100
AcDbLine
 10
358.7097988021557
 20
338.2442443179712
 30
0.0
 11
373.7097988021557
 21
338.2442443179712
 31
0.0
  0
LINE
  5
476
330
1F
100
AcDbEntity
  8
0
  6
DASHED2
 62
     5
100
AcDbLine
 10
373.7097988021557
 20
317.2442443179712
 30
0.0
 11
398.7097988021557
 21
317.2442443179712
 31
0.0
  0
LINE
  5
477
330
1F
100
AcDbEntity
  8
0
  6
DASHED2
 62
     5
100
AcDbLine
 10
358.7097988021557
 20
315.2442443179712
 30
0.0
 11
373.7097988021557
 21
315.2442443179712
 31
0.0
  0
LINE
  5
478
330
1F
100
AcDbEntity
  8
0
  6
DASHED2
 62
     5
100
AcDbLine
 10
373.7097988021557
 20
315.2442443179712
 30
0.0
 11
373.7097988021557
 21
338.2442443179712
 31
0.0
  0
LINE
  5
479
330
1F
100
AcDbEntity
  8
0
  6
DASHED2
 62
     5
100
AcDbLine
 10
398.7097988021557
 20
336.2442443179712
 30
0.0
 11
398.7097988021557
 21
317.2442443179712
 31
0.0
  0
LINE
  5
47A
330
1F
100
AcDbEntity
  8
0
  6
DASHED2
 62
     5
100
AcDbLine
 10
398.7097988021557
 20
317.2442443179712
 30
0.0
 11
404.1946263594571
 21
326.7442443179712
 31
0.0
  0
LINE
  5
47B
330
1F
100
AcDbEntity
  8
0
  6
DASHED2
 62
     5
100
AcDbLine
 10
398.7097988021557
 20
336.2442443179712
 30
0.0
 11
404.1946263594571
 21
326.7442443179712
 31
0.0
  0
INSERT
  5
47C
330
1F
100
AcDbEntity
  8
LAYER0013
  6
CONTINUOUS
100
AcDbBlockReference
  2
GROUP_4
 10
0.0
 20
0.0
 30
0.0
  0
POINT
  5
47D
330
1F
100
AcDbEntity
  8
LAYER0014
  6
CONTINUOUS
 62
     5
100
AcDbPoint
 10
0.0
 20
0.0
 30
0.0
  0
INSERT
  5
47E
330
1F
100
AcDbEntity
  8
ZUWAKU
  6
CONTINUOUS
100
AcDbBlockReference
  2
GROUP_5
 10
0.0
 20
0.0
 30
0.0
  0
LINE
  5
47F
330
1F
100
AcDbEntity
  8
0
 62
     4
100
AcDbLine
 10
255.0
 20
205.0
 30
0.0
 11
555.0
 21
205.0
 31
0.0
  0
LINE
  5
480
330
1F
100
AcDbEntity
  8
0
 62
     4
100
AcDbLine
 10
255.0
 20
385.0
 30
0.0
 11
255.0
 21
205.0
 31
0.0
  0
LINE
  5
481
330
1F
100
AcDbEntity
  8
LAYER0014
  6
DIVIDE
 62
     4
100
AcDbLine
 10
159.0667985722914
 20
-132.2113278328071
 30
0.0
 11
181.2010706785732
 21
-127.1726317435722
 31
0.0
  0
VIEWPORT
  5
30
330
1B
100
AcDbEntity
 67
     1
  8
0
100
AcDbViewport
 10
0.0
 20
0.0
 30
0.0
 40
3330.0
 41
2310.0
 68
     1
 69
     1
1001
ACAD
1000
MVIEW
1002
{
1070
    16
1010
0.0
1020
0.0
1030
0.0
1010
0.0
1020
0.0
1030
1.0
1040
0.0
1040
2310.0
1040
0.0
1040
0.0
1040
50.0
1040
0.0
1040
0.0
1070
     0
1070
   100
1070
     0
1070
     1
1070
     0
1070
     0
1070
     0
1070
     0
1040
0.0
1040
0.0
1040
0.0
1040
1.0
1040
1.0
1040
0.0
1040
0.0
1070
     0
1002
{
1002
}
1002
}
  0
ENDSEC
  0
SECTION
  2
OBJECTS
  0
DICTIONARY
  5
C
330
0
100
AcDbDictionary
  3
ACAD_GROUP
350
D
  3
ACAD_LAYOUT
350
1A
  3
ACAD_MLINESTYLE
350
17
  3
ACAD_PLOTSETTINGS
350
19
  3
ACDBHEADERROUNDTRIPXREC
350
482
  0
DICTIONARY
  5
4A2
330
29
100
AcDbDictionary
280
     1
  3
ACAD_XREC_ROUNDTRIP
360
4A3
  0
DICTIONARY
  5
D
102
{ACAD_REACTORS
330
C
102
}
330
C
100
AcDbDictionary
  0
DICTIONARY
  5
1A
102
{ACAD_REACTORS
330
C
102
}
330
C
100
AcDbDictionary
  0
DICTIONARY
  5
17
102
{ACAD_REACTORS
330
C
102
}
330
C
100
AcDbDictionary
  3
STANDARD
350
18
  0
DICTIONARY
  5
19
102
{ACAD_REACTORS
330
C
102
}
330
C
100
AcDbDictionary
  0
DICTIONARY
  5
482
102
{ACAD_REACTORS
330
C
102
}
330
C
100
AcDbDictionary
  3
CEPSNTYPE
350
48B
  3
DIMSTYLEDATA
350
4A1
  3
FINGERPRINTGUID
350
48C
  3
HYPERLINKBASE
350
485
  3
INSUNITS
350
48A
  3
LAYOUTDICT
350
487
  3
LWETCUNION
350
489
  3
PLOTSETDICT
350
488
  3
PSVPSCALE
350
48E
  3
PUCSBASE
350
491
  3
PUCSORGBACK
350
497
  3
PUCSORGBOTTOM
350
493
  3
PUCSORGFRONT
350
496
  3
PUCSORGLEFT
350
494
  3
PUCSORGRIGHT
350
495
  3
PUCSORGTOP
350
492
  3
PUCSORTHOREF
350
48F
  3
PUCSORTHOVIEW
350
490
  3
STYLESHEET
350
486
  3
TSTACKALIGN
350
483
  3
TSTACKSIZE
350
484
  3
UCSBASE
350
49A
  3
UCSORGBACK
350
4A0
  3
UCSORGBOTTOM
350
49C
  3
UCSORGFRONT
350
49F
  3
UCSORGLEFT
350
49D
  3
UCSORGRIGHT
350
49E
  3
UCSORGTOP
350
49B
  3
UCSORTHOREF
350
498
  3
UCSORTHOVIEW
350
499
  3
VERSIONGUID
350
48D
  0
XRECORD
  5
4A3
102
{ACAD_REACTORS
330
4A2
102
}
330
4A2
100
AcDbXrecord
102
UCS
 74
     0
 71
     1
 10
0.0
 20
0.0
 30
0.0
 10
1.0
 20
0.0
 30
0.0
 10
0.0
 20
1.0
 30
0.0
146
0.0
 79
     0
102
VIEW
281
     0
  0
MLINESTYLE
  5
18
102
{ACAD_REACTORS
330
17
102
}
330
17
100
AcDbMlineStyle
  2
Standard
 70
     0
  3

 62
   256
 51
90.0
 52
90.0
 71
     2
 49
0.5
 62
   256
  6
BYLAYER
 49
-0.5
 62
   256
  6
BYLAYER
  0
XRECORD
  5
48B
102
{ACAD_REACTORS
330
482
102
}
330
482
100
AcDbXrecord
 90
        0
  0
XRECORD
  5
4A1
102
{ACAD_REACTORS
330
482
102
}
330
482
100
AcDbXrecord
1000
DSTYLE
1002
{
1070
   171
 70
     2
1070
   143
 40
25.4
1070
   274
 70
     2
1070
    41
 40
0.18
1070
   141
 40
0.09
1070
   271
 70
     4
1070
    43
 40
0.38
1070
    44
 40
0.18
1070
   278
 70
    46
1070
    42
 40
0.0625
1070
   147
 40
0.09
1070
    77
 70
     3
1070
   272
 70
     4
1070
    73
 70
     1
1070
   172
 70
     0
1070
    74
 70
     1
1070
   283
 70
     1
1070
   340
340
11
1070
   140
 40
0.18
1070
   284
 70
     0
1070
    78
 70
     0
1002
}
  0
XRECORD
  5
48C
102
{ACAD_REACTORS
330
482
102
}
330
482
100
AcDbXrecord
  1
{FAEB1C30-E019-11D5-929B-00C0DF256EC4}
  0
XRECORD
  5
485
102
{ACAD_REACTORS
330
482
102
}
330
482
100
AcDbXrecord
  1

  0
XRECORD
  5
48A
102
{ACAD_REACTORS
330
482
102
}
330
482
100
AcDbXrecord
 90
        4
  0
XRECORD
  5
487
102
{ACAD_REACTORS
330
482
102
}
330
482
100
AcDbXrecord
340
1A
  0
XRECORD
  5
489
102
{ACAD_REACTORS
330
482
102
}
330
482
100
AcDbXrecord
 90
    10752
  0
XRECORD
  5
488
102
{ACAD_REACTORS
330
482
102
}
330
482
100
AcDbXrecord
340
19
  0
XRECORD
  5
48E
102
{ACAD_REACTORS
330
482
102
}
330
482
100
AcDbXrecord
 40
0.0
  0
XRECORD
  5
491
102
{ACAD_REACTORS
330
482
102
}
330
482
100
AcDbXrecord
340
0
  0
XRECORD
  5
497
102
{ACAD_REACTORS
330
482
102
}
330
482
100
AcDbXrecord
 10
0.0
 20
0.0
 30
0.0
  0
XRECORD
  5
493
102
{ACAD_REACTORS
330
482
102
}
330
482
100
AcDbXrecord
 10
0.0
 20
0.0
 30
0.0
  0
XRECORD
  5
496
102
{ACAD_REACTORS
330
482
102
}
330
482
100
AcDbXrecord
 10
0.0
 20
0.0
 30
0.0
  0
XRECORD
  5
494
102
{ACAD_REACTORS
330
482
102
}
330
482
100
AcDbXrecord
 10
0.0
 20
0.0
 30
0.0
  0
XRECORD
  5
495
102
{ACAD_REACTORS
330
482
102
}
330
482
100
AcDbXrecord
 10
0.0
 20
0.0
 30
0.0
  0
XRECORD
  5
492
102
{ACAD_REACTORS
330
482
102
}
330
482
100
AcDbXrecord
 10
0.0
 20
0.0
 30
0.0
  0
XRECORD
  5
48F
102
{ACAD_REACTORS
330
482
102
}
330
482
100
AcDbXrecord
340
0
  0
XRECORD
  5
490
102
{ACAD_REACTORS
330
482
102
}
330
482
100
AcDbXrecord
 70
     0
  0
XRECORD
  5
486
102
{ACAD_REACTORS
330
482
102
}
330
482
100
AcDbXrecord
  1

  0
XRECORD
  5
483
102
{ACAD_REACTORS
330
482
102
}
330
482
100
AcDbXrecord
 90
        1
  0
XRECORD
  5
484
102
{ACAD_REACTORS
330
482
102
}
330
482
100
AcDbXrecord
 90
       70
  0
XRECORD
  5
49A
102
{ACAD_REACTORS
330
482
102
}
330
482
100
AcDbXrecord
340
0
  0
XRECORD
  5
4A0
102
{ACAD_REACTORS
330
482
102
}
330
482
100
AcDbXrecord
 10
0.0
 20
0.0
 30
0.0
  0
XRECORD
  5
49C
102
{ACAD_REACTORS
330
482
102
}
330
482
100
AcDbXrecord
 10
0.0
 20
0.0
 30
0.0
  0
XRECORD
  5
49F
102
{ACAD_REACTORS
330
482
102
}
330
482
100
AcDbXrecord
 10
0.0
 20
0.0
 30
0.0
  0
XRECORD
  5
49D
102
{ACAD_REACTORS
330
482
102
}
330
482
100
AcDbXrecord
 10
0.0
 20
0.0
 30
0.0
  0
XRECORD
  5
49E
102
{ACAD_REACTORS
330
482
102
}
330
482
100
AcDbXrecord
 10
0.0
 20
0.0
 30
0.0
  0
XRECORD
  5
49B
102
{ACAD_REACTORS
330
482
102
}
330
482
100
AcDbXrecord
 10
0.0
 20
0.0
 30
0.0
  0
XRECORD
  5
498
102
{ACAD_REACTORS
330
482
102
}
330
482
100
AcDbXrecord
340
0
  0
XRECORD
  5
499
102
{ACAD_REACTORS
330
482
102
}
330
482
100
AcDbXrecord
 70
     0
  0
XRECORD
  5
48D
102
{ACAD_REACTORS
330
482
102
}
330
482
100
AcDbXrecord
  1
{FAEB1C32-E019-11D5-929B-00C0DF256EC4}
  0
ENDSEC
  0
EOF
