  0
SECTION
  2
HEADER
  9
$ACADVER
  1
AC1014
  9
$ACADMAINTVER
 70
     9
  9
$DWGCODEPAGE
  3
ANSI_932
  9
$INSBASE
 10
0.0
 20
0.0
 30
0.0
  9
$EXTMIN
 10
-2081.25
 20
-1443.75
 30
0.0
  9
$EXTMAX
 10
2081.25
 20
1443.75
 30
0.0
  9
$LIMMIN
 10
-696.25
 20
-508.75
  9
$LIMMAX
 10
696.25
 20
508.75
  9
$ORTHOMODE
 70
     0
  9
$REGENMODE
 70
     1
  9
$FILLMODE
 70
     1
  9
$QTEXTMODE
 70
     0
  9
$MIRRTEXT
 70
     1
  9
$DRAGMODE
 70
     2
  9
$LTSCALE
 40
2.5
  9
$OSMODE
 70
    37
  9
$ATTMODE
 70
     1
  9
$TEXTSIZE
 40
0.2
  9
$TRACEWID
 40
0.05
  9
$TEXTSTYLE
  7
STANDARD
  9
$CLAYER
  8
0
  9
$CELTYPE
  6
BYLAYER
  9
$CECOLOR
 62
   256
  9
$CELTSCALE
 40
1.0
  9
$DELOBJ
 70
     1
  9
$DISPSILH
 70
     0
  9
$DIMSCALE
 40
1.0
  9
$DIMASZ
 40
6.25
  9
$DIMEXO
 40
0.0625
  9
$DIMDLI
 40
0.38
  9
$DIMRND
 40
0.0
  9
$DIMDLE
 40
0.0
  9
$DIMEXE
 40
0.18
  9
$DIMTP
 40
0.0
  9
$DIMTM
 40
0.0
  9
$DIMTXT
 40
0.18
  9
$DIMCEN
 40
0.09
  9
$DIMTSZ
 40
0.0
  9
$DIMTOL
 70
     0
  9
$DIMLIM
 70
     0
  9
$DIMTIH
 70
     1
  9
$DIMTOH
 70
     1
  9
$DIMSE1
 70
     0
  9
$DIMSE2
 70
     0
  9
$DIMTAD
 70
     3
  9
$DIMZIN
 70
     0
  9
$DIMBLK
  1

  9
$DIMASO
 70
     1
  9
$DIMSHO
 70
     1
  9
$DIMPOST
  1

  9
$DIMAPOST
  1

  9
$DIMALT
 70
     0
  9
$DIMALTD
 70
     2
  9
$DIMALTF
 40
25.4
  9
$DIMLFAC
 40
1.0
  9
$DIMTOFL
 70
     0
  9
$DIMTVP
 40
0.0
  9
$DIMTIX
 70
     0
  9
$DIMSOXD
 70
     0
  9
$DIMSAH
 70
     0
  9
$DIMBLK1
  1

  9
$DIMBLK2
  1

  9
$DIMSTYLE
  2
STANDARD
  9
$DIMCLRD
 70
     0
  9
$DIMCLRE
 70
     0
  9
$DIMCLRT
 70
     0
  9
$DIMTFAC
 40
1.0
  9
$DIMGAP
 40
0.09
  9
$DIMJUST
 70
     0
  9
$DIMSD1
 70
     0
  9
$DIMSD2
 70
     0
  9
$DIMTOLJ
 70
     1
  9
$DIMTZIN
 70
     0
  9
$DIMALTZ
 70
     0
  9
$DIMALTTZ
 70
     0
  9
$DIMFIT
 70
     3
  9
$DIMUPT
 70
     0
  9
$DIMUNIT
 70
     2
  9
$DIMDEC
 70
     4
  9
$DIMTDEC
 70
     4
  9
$DIMALTU
 70
     2
  9
$DIMALTTD
 70
     2
  9
$DIMTXSTY
  7
STANDARD
  9
$DIMAUNIT
 70
     0
  9
$LUNITS
 70
     2
  9
$LUPREC
 70
     4
  9
$SKETCHINC
 40
0.1
  9
$FILLETRAD
 40
0.5
  9
$AUNITS
 70
     0
  9
$AUPREC
 70
     0
  9
$MENU
  1
.
  9
$ELEVATION
 40
0.0
  9
$PELEVATION
 40
0.0
  9
$THICKNESS
 40
0.0
  9
$LIMCHECK
 70
     0
  9
$CHAMFERA
 40
0.5
  9
$CHAMFERB
 40
0.5
  9
$CHAMFERC
 40
1.0
  9
$CHAMFERD
 40
0.0
  9
$SKPOLY
 70
     0
  9
$TDCREATE
 40
2454335.712579028
  9
$TDUPDATE
 40
2454335.712579039
  9
$TDINDWG
 40
0.0000000116
  9
$TDUSRTIMER
 40
0.0000000116
  9
$USRTIMER
 70
     1
  9
$ANGBASE
 50
0.0
  9
$ANGDIR
 70
     0
  9
$PDMODE
 70
     0
  9
$PDSIZE
 40
1.0
  9
$PLINEWID
 40
0.0
  9
$COORDS
 70
     1
  9
$SPLFRAME
 70
     0
  9
$SPLINETYPE
 70
     6
  9
$SPLINESEGS
 70
     8
  9
$ATTDIA
 70
     0
  9
$ATTREQ
 70
     1
  9
$HANDLING
 70
     1
  9
$HANDSEED
  5
495
  9
$SURFTAB1
 70
     6
  9
$SURFTAB2
 70
     6
  9
$SURFTYPE
 70
     6
  9
$SURFU
 70
     6
  9
$SURFV
 70
     6
  9
$UCSNAME
  2

  9
$UCSORG
 10
0.0
 20
0.0
 30
0.0
  9
$UCSXDIR
 10
1.0
 20
0.0
 30
0.0
  9
$UCSYDIR
 10
0.0
 20
1.0
 30
0.0
  9
$PUCSNAME
  2

  9
$PUCSORG
 10
0.0
 20
0.0
 30
0.0
  9
$PUCSXDIR
 10
1.0
 20
0.0
 30
0.0
  9
$PUCSYDIR
 10
0.0
 20
1.0
 30
0.0
  9
$USERI1
 70
     0
  9
$USERI2
 70
     0
  9
$USERI3
 70
     0
  9
$USERI4
 70
     0
  9
$USERI5
 70
     0
  9
$USERR1
 40
0.0
  9
$USERR2
 40
0.0
  9
$USERR3
 40
0.0
  9
$USERR4
 40
0.0
  9
$USERR5
 40
0.0
  9
$WORLDVIEW
 70
     1
  9
$SHADEDGE
 70
     3
  9
$SHADEDIF
 70
    70
  9
$TILEMODE
 70
     1
  9
$MAXACTVP
 70
    64
  9
$PINSBASE
 10
0.0
 20
0.0
 30
0.0
  9
$PLIMCHECK
 70
     0
  9
$PEXTMIN
 10
1.000000000000000E+20
 20
1.000000000000000E+20
 30
1.000000000000000E+20
  9
$PEXTMAX
 10
-1.000000000000000E+20
 20
-1.000000000000000E+20
 30
-1.000000000000000E+20
  9
$PLIMMIN
 10
0.0
 20
0.0
  9
$PLIMMAX
 10
12.0
 20
9.0
  9
$UNITMODE
 70
     0
  9
$VISRETAIN
 70
     0
  9
$PLINEGEN
 70
     1
  9
$PSLTSCALE
 70
     0
  9
$TREEDEPTH
 70
  3020
  9
$PICKSTYLE
 70
     1
  9
$CMLSTYLE
  2
STANDARD
  9
$CMLJUST
 70
     0
  9
$CMLSCALE
 40
1.0
  9
$PROXYGRAPHICS
 70
     0
  9
$MEASUREMENT
 70
     1
  0
ENDSEC
  0
SECTION
  2
CLASSES
  0
CLASS
  1
ACDBDICTIONARYWDFLT
  2
AcDbDictionaryWithDefault
  3
ObjectDBX Classes
 90
        0
280
     0
281
     0
  0
CLASS
  1
XRECORD
  2
AcDbXrecord
  3
AutoCAD 2000
 90
        0
280
     0
281
     0
  0
CLASS
  1
LWPOLYLINE
  2
AcDbPolyline
  3
AutoCAD 2000
 90
        0
280
     0
281
     1
  0
CLASS
  1
HATCH
  2
AcDbHatch
  3
AutoCAD 2000
 90
        0
280
     0
281
     1
  0
CLASS
  1
ACDBPLACEHOLDER
  2
AcDbPlaceHolder
  3
ObjectDBX Classes
 90
        0
280
     0
281
     0
  0
CLASS
  1
LAYOUT
  2
AcDbLayout
  3
ObjectDBX Classes
 90
        0
280
     0
281
     0
  0
ENDSEC
  0
SECTION
  2
TABLES
  0
TABLE
  2
VPORT
  5
8
330
0
100
AcDbSymbolTable
 70
     1
  0
VPORT
  5
29
330
8
100
AcDbSymbolTableRecord
100
AcDbViewportTableRecord
  2
*ACTIVE
 70
     0
 10
0.0
 20
0.0
 11
1.0
 21
1.0
 12
0.0
 22
0.0
 13
0.0
 23
0.0
 14
0.5
 24
0.5
 15
0.5
 25
0.5
 16
0.0
 26
0.0
 36
1.0
 17
-0.0000000000000036
 27
0.0
 37
0.0
 40
981.75
 41
1.441558441558442
 42
50.0
 43
0.0
 44
0.0
 50
0.0
 51
0.0
 71
     0
 72
  1000
 73
     1
 74
     1
 75
     0
 76
     0
 77
     0
 78
     0
  0
ENDTAB
  0
TABLE
  2
LTYPE
  5
5
330
0
100
AcDbSymbolTable
 70
    28
  0
LTYPE
  5
14
330
5
100
AcDbSymbolTableRecord
100
AcDbLinetypeTableRecord
  2
BYBLOCK
 70
     0
  3

 72
    65
 73
     0
 40
0.0
  0
LTYPE
  5
15
330
5
100
AcDbSymbolTableRecord
100
AcDbLinetypeTableRecord
  2
BYLAYER
 70
     0
  3

 72
    65
 73
     0
 40
0.0
  0
LTYPE
  5
16
330
5
100
AcDbSymbolTableRecord
100
AcDbLinetypeTableRecord
  2
CONTINUOUS
 70
     0
  3
Solid line
 72
    65
 73
     0
 40
0.0
  0
LTYPE
  5
2B
330
5
100
AcDbSymbolTableRecord
100
AcDbLinetypeTableRecord
  2
HIDDENX2
 70
     0
  3
CADPAC LINETYPE
 72
    65
 73
     2
 40
9.973142345568432
 49
7.479856759176323
 74
     0
 49
-2.493285586392108
 74
     0
  0
LTYPE
  5
2C
330
5
100
AcDbSymbolTableRecord
100
AcDbLinetypeTableRecord
  2
HIDDEN
 70
     0
  3
CADPAC LINETYPE
 72
    65
 73
     2
 40
7.479856759176323
 49
4.986571172784216
 74
     0
 49
-2.493285586392108
 74
     0
  0
LTYPE
  5
2D
330
5
100
AcDbSymbolTableRecord
100
AcDbLinetypeTableRecord
  2
HIDDEN2
 70
     0
  3
CADPAC LINETYPE
 72
    65
 73
     2
 40
6.233213965980269
 49
3.739928379588162
 74
     0
 49
-2.493285586392108
 74
     0
  0
LTYPE
  5
2E
330
5
100
AcDbSymbolTableRecord
100
AcDbLinetypeTableRecord
  2
DASHED
 70
     0
  3
CADPAC LINETYPE
 72
    65
 73
     2
 40
6.981199641897911
 49
4.986571172784216
 74
     0
 49
-1.994628469113695
 74
     0
  0
LTYPE
  5
2F
330
5
100
AcDbSymbolTableRecord
100
AcDbLinetypeTableRecord
  2
DASHED2
 70
     0
  3
CADPAC LINETYPE
 72
    65
 73
     2
 40
4.48791405550578
 49
2.99194270367052
 74
     0
 49
-1.49597135183526
 74
     0
  0
LTYPE
  5
30
330
5
100
AcDbSymbolTableRecord
100
AcDbLinetypeTableRecord
  2
DASHEDX2
 70
     0
  3
CADPAC LINETYPE
 72
    65
 73
     2
 40
11.96777081468217
 49
9.973142345568476
 74
     0
 49
-1.994628469113695
 74
     0
  0
LTYPE
  5
31
330
5
100
AcDbSymbolTableRecord
100
AcDbLinetypeTableRecord
  2
DOTX2
 70
     0
  3
CADPAC LINETYPE
 72
    65
 73
     2
 40
4.363249776186194
 49
0.0
 74
     0
 49
-4.363249776186194
 74
     0
  0
LTYPE
  5
32
330
5
100
AcDbSymbolTableRecord
100
AcDbLinetypeTableRecord
  2
DOT
 70
     0
  3
CADPAC LINETYPE
 72
    65
 73
     2
 40
3.490599820948956
 49
0.0
 74
     0
 49
-3.490599820948956
 74
     0
  0
LTYPE
  5
33
330
5
100
AcDbSymbolTableRecord
100
AcDbLinetypeTableRecord
  2
DOT2
 70
     0
  3
CADPAC LINETYPE
 72
    65
 73
     2
 40
2.617949865711717
 49
0.0
 74
     0
 49
-2.617949865711717
 74
     0
  0
LTYPE
  5
34
330
5
100
AcDbSymbolTableRecord
100
AcDbLinetypeTableRecord
  2
CENTERX2
 70
     0
  3
CADPAC LINETYPE
 72
    65
 73
     4
 40
14.95971351835265
 49
6.23321396598027
 74
     0
 49
-3.116606982990135
 74
     0
 49
2.493285586392108
 74
     0
 49
-3.116606982990135
 74
     0
  0
LTYPE
  5
35
330
5
100
AcDbSymbolTableRecord
100
AcDbLinetypeTableRecord
  2
CENTER
 70
     0
  3
CADPAC LINETYPE
 72
    65
 73
     4
 40
11.4691136974037
 49
4.986571172784216
 74
     0
 49
-2.493285586392108
 74
     0
 49
1.495971351835265
 74
     0
 49
-2.493285586392108
 74
     0
  0
LTYPE
  5
36
330
5
100
AcDbSymbolTableRecord
100
AcDbLinetypeTableRecord
  2
CENTER2
 70
     0
  3
CADPAC LINETYPE
 72
    65
 73
     4
 40
7.978513876454746
 49
3.739928379588162
 74
     0
 49
-1.869964189794081
 74
     0
 49
0.4986571172784216
 74
     0
 49
-1.869964189794081
 74
     0
  0
LTYPE
  5
37
330
5
100
AcDbSymbolTableRecord
100
AcDbLinetypeTableRecord
  2
DASHDOTX2
 70
     0
  3
CADPAC LINETYPE
 72
    65
 73
     4
 40
23.93554162936434
 49
11.96777081468217
 74
     0
 49
-3.989256938227391
 74
     0
 49
3.989256938227391
 74
     0
 49
-3.989256938227391
 74
     0
  0
LTYPE
  5
38
330
5
100
AcDbSymbolTableRecord
100
AcDbLinetypeTableRecord
  2
DASHDOT
 70
     0
  3
CADPAC LINETYPE
 72
    65
 73
     4
 40
11.96777081468213
 49
5.983885407341041
 74
     0
 49
-1.994628469113695
 74
     0
 49
1.994628469113695
 74
     0
 49
-1.994628469113695
 74
     0
  0
LTYPE
  5
39
330
5
100
AcDbSymbolTableRecord
100
AcDbLinetypeTableRecord
  2
DASHDOT2
 70
     0
  3
CADPAC LINETYPE
 72
    65
 73
     4
 40
7.679319606087693
 49
4.48791405550578
 74
     0
 49
-1.495971351835272
 74
     0
 49
0.1994628469113695
 74
     0
 49
-1.495971351835272
 74
     0
  0
LTYPE
  5
3A
330
5
100
AcDbSymbolTableRecord
100
AcDbLinetypeTableRecord
  2
DIVIDEX2
 70
     0
  3
CADPAC LINETYPE
 72
    65
 73
     6
 40
31.91405550581913
 49
11.96777081468217
 74
     0
 49
-3.989256938227391
 74
     0
 49
3.989256938227391
 74
     0
 49
-3.989256938227391
 74
     0
 49
3.989256938227391
 74
     0
 49
-3.989256938227391
 74
     0
  0
LTYPE
  5
3B
330
5
100
AcDbSymbolTableRecord
100
AcDbLinetypeTableRecord
  2
DIVIDE
 70
     0
  3
CADPAC LINETYPE
 72
    65
 73
     6
 40
15.95702775290952
 49
5.983885407341041
 74
     0
 49
-1.994628469113695
 74
     0
 49
1.994628469113695
 74
     0
 49
-1.994628469113695
 74
     0
 49
1.994628469113695
 74
     0
 49
-1.994628469113695
 74
     0
  0
LTYPE
  5
3C
330
5
100
AcDbSymbolTableRecord
100
AcDbLinetypeTableRecord
  2
DIVIDE2
 70
     0
  3
CADPAC LINETYPE
 72
    65
 73
     6
 40
11.96777081468214
 49
4.48791405550578
 74
     0
 49
-1.495971351835272
 74
     0
 49
1.495971351835272
 74
     0
 49
-1.495971351835272
 74
     0
 49
1.495971351835272
 74
     0
 49
-1.495971351835272
 74
     0
  0
LTYPE
  5
3D
330
5
100
AcDbSymbolTableRecord
100
AcDbLinetypeTableRecord
  2
BORDERX2
 70
     0
  3
CADPAC LINETYPE
 72
    65
 73
     6
 40
21.81624888093095
 49
6.23321396598027
 74
     0
 49
-3.116606982990135
 74
     0
 49
6.23321396598027
 74
     0
 49
-3.116606982990135
 74
     0
 49
0.0
 74
     0
 49
-3.116606982990135
 74
     0
  0
LTYPE
  5
3E
330
5
100
AcDbSymbolTableRecord
100
AcDbLinetypeTableRecord
  2
BORDER
 70
     0
  3
CADPAC LINETYPE
 72
    65
 73
     6
 40
17.45299910474476
 49
4.986571172784216
 74
     0
 49
-2.493285586392108
 74
     0
 49
4.986571172784216
 74
     0
 49
-2.493285586392108
 74
     0
 49
0.0
 74
     0
 49
-2.493285586392108
 74
     0
  0
LTYPE
  5
3F
330
5
100
AcDbSymbolTableRecord
100
AcDbLinetypeTableRecord
  2
BORDER2
 70
     0
  3
CADPAC LINETYPE
 72
    65
 73
     6
 40
12.96508504923893
 49
3.989256938227391
 74
     0
 49
-2.493285586392085
 74
     0
 49
1.49597135183526
 74
     0
 49
-2.493285586392085
 74
     0
 49
0.0
 74
     0
 49
-2.493285586392108
 74
     0
  0
LTYPE
  5
40
330
5
100
AcDbSymbolTableRecord
100
AcDbLinetypeTableRecord
  2
PHANTOMX2
 70
     0
  3
CADPAC LINETYPE
 72
    65
 73
     6
 40
18.69964189794081
 49
6.23321396598027
 74
     0
 49
-2.493285586392108
 74
     0
 49
2.493285586392108
 74
     0
 49
-2.493285586392108
 74
     0
 49
2.493285586392108
 74
     0
 49
-2.493285586392108
 74
     0
  0
LTYPE
  5
41
330
5
100
AcDbSymbolTableRecord
100
AcDbLinetypeTableRecord
  2
PHANTOM
 70
     0
  3
CADPAC LINETYPE
 72
    65
 73
     6
 40
15.45837063563107
 49
4.986571172784216
 74
     0
 49
-2.493285586392108
 74
     0
 49
1.495971351835265
 74
     0
 49
-2.493285586392108
 74
     0
 49
1.495971351835265
 74
     0
 49
-2.493285586392108
 74
     0
  0
LTYPE
  5
42
330
5
100
AcDbSymbolTableRecord
100
AcDbLinetypeTableRecord
  2
PHANTOM2
 70
     0
  3
CADPAC LINETYPE
 72
    65
 73
     6
 40
13.21441360787817
 49
3.739928379588162
 74
     0
 49
-2.493285586392108
 74
     0
 49
0.9973142345568432
 74
     0
 49
-2.493285586392108
 74
     0
 49
0.9973142345568432
 74
     0
 49
-2.493285586392108
 74
     0
  0
LTYPE
  5
43
330
5
100
AcDbSymbolTableRecord
100
AcDbLinetypeTableRecord
  2
ACAD_ISO06W100
 70
     0
  3
CADPAC LINETYPE
 72
    65
 73
     8
 40
26.42882721575629
 49
11.96777081468217
 74
     0
 49
-2.493285586392085
 74
     0
 49
1.49597135183526
 74
     0
 49
-2.493285586392085
 74
     0
 49
1.49597135183526
 74
     0
 49
-2.493285586392085
 74
     0
 49
1.49597135183526
 74
     0
 49
-2.493285586392085
 74
     0
  0
LTYPE
  5
44
330
5
100
AcDbSymbolTableRecord
100
AcDbLinetypeTableRecord
  2
ACAD_ISO13W100
 70
     0
  3
CADPAC LINETYPE
 72
    65
 73
     8
 40
19.94628469113686
 49
4.986571172784216
 74
     0
 49
-2.493285586392108
 74
     0
 49
4.986571172784216
 74
     0
 49
-2.493285586392108
 74
     0
 49
0.0
 74
     0
 49
-2.493285586392108
 74
     0
 49
0.0
 74
     0
 49
-2.493285586392108
 74
     0
  0
LTYPE
  5
45
330
5
100
AcDbSymbolTableRecord
100
AcDbLinetypeTableRecord
  2
ACAD_ISO14W100
 70
     0
  3
CADPAC LINETYPE
 72
    65
 73
     8
 40
14.95971351835265
 49
4.986571172784216
 74
     0
 49
-2.493285586392108
 74
     0
 49
0.0
 74
     0
 49
-2.493285586392108
 74
     0
 49
0.0
 74
     0
 49
-2.493285586392108
 74
     0
 49
0.0
 74
     0
 49
-2.493285586392108
 74
     0
  0
ENDTAB
  0
TABLE
  2
LAYER
  5
2
330
0
100
AcDbSymbolTable
 70
     5
  0
LAYER
  5
10
330
2
100
AcDbSymbolTableRecord
100
AcDbLayerTableRecord
  2
0
 70
     0
 62
     7
  6
CONTINUOUS
  0
LAYER
  5
46
330
2
100
AcDbSymbolTableRecord
100
AcDbLayerTableRecord
  2
LAYER0002
 70
     0
 62
     7
  6
CONTINUOUS
  0
LAYER
  5
47
330
2
100
AcDbSymbolTableRecord
100
AcDbLayerTableRecord
  2
LAYER0013
 70
     0
 62
     7
  6
CONTINUOUS
  0
LAYER
  5
48
330
2
100
AcDbSymbolTableRecord
100
AcDbLayerTableRecord
  2
LAYER0014
 70
     0
 62
     7
  6
CONTINUOUS
  0
LAYER
  5
49
330
2
100
AcDbSymbolTableRecord
100
AcDbLayerTableRecord
  2
ZUWAKU
 70
     0
 62
     7
  6
CONTINUOUS
  0
ENDTAB
  0
TABLE
  2
STYLE
  5
3
330
0
100
AcDbSymbolTable
 70
     3
  0
STYLE
  5
11
330
3
100
AcDbSymbolTableRecord
100
AcDbTextStyleTableRecord
  2
STANDARD
 70
     0
 40
0.0
 41
1.0
 50
0.0
 71
     0
 42
0.2
  3
txt
  4

  0
STYLE
  5
B0
330
3
100
AcDbSymbolTableRecord
100
AcDbTextStyleTableRecord
  2
FDASTYLE0
 70
     0
 40
0.0
 41
0.8
 50
0.0
 71
     0
 42
0.2
  3
txt.shx
  4
bigfont
  0
STYLE
  5
16D
330
3
100
AcDbSymbolTableRecord
100
AcDbTextStyleTableRecord
  2
FDASTYLE1
 70
     0
 40
0.0
 41
0.6666666666666666
 50
0.0
 71
     0
 42
0.2
  3
HGRSGU.TTC
  4

1001
ACAD
1000
HGS創英角ｺﾞｼｯｸUB
1071
    32802
  0
ENDTAB
  0
TABLE
  2
VIEW
  5
6
330
0
100
AcDbSymbolTable
 70
     0
  0
ENDTAB
  0
TABLE
  2
UCS
  5
7
330
0
100
AcDbSymbolTable
 70
     0
  0
ENDTAB
  0
TABLE
  2
APPID
  5
9
330
0
100
AcDbSymbolTable
 70
     2
  0
APPID
  5
12
330
9
100
AcDbSymbolTableRecord
100
AcDbRegAppTableRecord
  2
ACAD
 70
     0
  0
APPID
  5
2A
330
9
100
AcDbSymbolTableRecord
100
AcDbRegAppTableRecord
  2
DAFUSIONOUT
 70
     0
  0
ENDTAB
  0
TABLE
  2
DIMSTYLE
  5
A
330
0
100
AcDbSymbolTable
 70
     1
  0
DIMSTYLE
105
27
330
A
100
AcDbSymbolTableRecord
100
AcDbDimStyleTableRecord
  2
STANDARD
 70
     0
  3

  4

  5

  6

  7

 40
1.0
 41
0.18
 42
0.0625
 43
0.38
 44
0.18
 45
0.0
 46
0.0
 47
0.0
 48
0.0
140
0.18
141
0.09
142
0.0
143
25.4
144
1.0
145
0.0
146
1.0
147
0.09
 71
     0
 72
     0
 73
     1
 74
     1
 75
     0
 76
     0
 77
     0
 78
     0
170
     0
171
     2
172
     0
173
     0
174
     0
175
     0
176
     0
177
     0
178
     0
270
     2
271
     4
272
     4
273
     2
274
     2
340
11
275
     0
280
     0
281
     0
282
     0
283
     1
284
     0
285
     0
286
     0
287
     3
288
     0
  0
ENDTAB
  0
TABLE
  2
BLOCK_RECORD
  5
1
330
0
100
AcDbSymbolTable
 70
    32
  0
BLOCK_RECORD
  5
1F
330
1
100
AcDbSymbolTableRecord
100
AcDbBlockTableRecord
  2
*MODEL_SPACE
  0
BLOCK_RECORD
  5
1B
330
1
100
AcDbSymbolTableRecord
100
AcDbBlockTableRecord
  2
*PAPER_SPACE
  0
BLOCK_RECORD
  5
4B
330
1
100
AcDbSymbolTableRecord
100
AcDbBlockTableRecord
  2
DA_IMAGEDIMGROUP_1
  0
BLOCK_RECORD
  5
4E
330
1
100
AcDbSymbolTableRecord
100
AcDbBlockTableRecord
  2
DA_IMAGEDIMGROUP_2
  0
BLOCK_RECORD
  5
51
330
1
100
AcDbSymbolTableRecord
100
AcDbBlockTableRecord
  2
DA_IMAGEDIMGROUP_3
  0
BLOCK_RECORD
  5
54
330
1
100
AcDbSymbolTableRecord
100
AcDbBlockTableRecord
  2
DA_IMAGEDIMGROUP_4
  0
BLOCK_RECORD
  5
57
330
1
100
AcDbSymbolTableRecord
100
AcDbBlockTableRecord
  2
DA_IMAGEDIMGROUP_5
  0
BLOCK_RECORD
  5
5A
330
1
100
AcDbSymbolTableRecord
100
AcDbBlockTableRecord
  2
DA_IMAGEDIMGROUP_6
  0
BLOCK_RECORD
  5
5D
330
1
100
AcDbSymbolTableRecord
100
AcDbBlockTableRecord
  2
DA_IMAGEDIMGROUP_7
  0
BLOCK_RECORD
  5
60
330
1
100
AcDbSymbolTableRecord
100
AcDbBlockTableRecord
  2
DA_IMAGEDIMGROUP_8
  0
BLOCK_RECORD
  5
63
330
1
100
AcDbSymbolTableRecord
100
AcDbBlockTableRecord
  2
DA_IMAGEDIMGROUP_9
  0
BLOCK_RECORD
  5
66
330
1
100
AcDbSymbolTableRecord
100
AcDbBlockTableRecord
  2
DA_IMAGEDIMGROUP_10
  0
BLOCK_RECORD
  5
69
330
1
100
AcDbSymbolTableRecord
100
AcDbBlockTableRecord
  2
DA_IMAGEDIMGROUP_11
  0
BLOCK_RECORD
  5
6C
330
1
100
AcDbSymbolTableRecord
100
AcDbBlockTableRecord
  2
DA_IMAGEDIMGROUP_12
  0
BLOCK_RECORD
  5
6F
330
1
100
AcDbSymbolTableRecord
100
AcDbBlockTableRecord
  2
DA_IMAGEDIMGROUP_13
  0
BLOCK_RECORD
  5
72
330
1
100
AcDbSymbolTableRecord
100
AcDbBlockTableRecord
  2
DA_IMAGEDIMGROUP_14
  0
BLOCK_RECORD
  5
75
330
1
100
AcDbSymbolTableRecord
100
AcDbBlockTableRecord
  2
DA_IMAGEDIMGROUP_15
  0
BLOCK_RECORD
  5
78
330
1
100
AcDbSymbolTableRecord
100
AcDbBlockTableRecord
  2
DA_IMAGEDIMGROUP_16
  0
BLOCK_RECORD
  5
7B
330
1
100
AcDbSymbolTableRecord
100
AcDbBlockTableRecord
  2
DA_IMAGEDIMGROUP_17
  0
BLOCK_RECORD
  5
7E
330
1
100
AcDbSymbolTableRecord
100
AcDbBlockTableRecord
  2
DA_IMAGEDIMGROUP_18
  0
BLOCK_RECORD
  5
81
330
1
100
AcDbSymbolTableRecord
100
AcDbBlockTableRecord
  2
DA_IMAGEDIMGROUP_19
  0
BLOCK_RECORD
  5
84
330
1
100
AcDbSymbolTableRecord
100
AcDbBlockTableRecord
  2
DA_IMAGEDIMGROUP_20
  0
BLOCK_RECORD
  5
87
330
1
100
AcDbSymbolTableRecord
100
AcDbBlockTableRecord
  2
DA_IMAGEDIMGROUP_21
  0
BLOCK_RECORD
  5
8A
330
1
100
AcDbSymbolTableRecord
100
AcDbBlockTableRecord
  2
DC_GROUP_1
  0
BLOCK_RECORD
  5
8D
330
1
100
AcDbSymbolTableRecord
100
AcDbBlockTableRecord
  2
DA_IMAGEDIMGROUP_22
  0
BLOCK_RECORD
  5
90
330
1
100
AcDbSymbolTableRecord
100
AcDbBlockTableRecord
  2
DA_IMAGEDIMGROUP_23
  0
BLOCK_RECORD
  5
93
330
1
100
AcDbSymbolTableRecord
100
AcDbBlockTableRecord
  2
DA_IMAGEDIMGROUP_24
  0
BLOCK_RECORD
  5
96
330
1
100
AcDbSymbolTableRecord
100
AcDbBlockTableRecord
  2
DC_GROUP_2
  0
BLOCK_RECORD
  5
99
330
1
100
AcDbSymbolTableRecord
100
AcDbBlockTableRecord
  2
DA_IMAGEDIMGROUP_25
  0
BLOCK_RECORD
  5
9C
330
1
100
AcDbSymbolTableRecord
100
AcDbBlockTableRecord
  2
DA_IMAGEDIMGROUP_26
  0
BLOCK_RECORD
  5
9F
330
1
100
AcDbSymbolTableRecord
100
AcDbBlockTableRecord
  2
DA_IMAGEDIMGROUP_27
  0
BLOCK_RECORD
  5
A2
330
1
100
AcDbSymbolTableRecord
100
AcDbBlockTableRecord
  2
DC_GROUP_3
  0
BLOCK_RECORD
  5
A8
330
1
100
AcDbSymbolTableRecord
100
AcDbBlockTableRecord
  2
_OPEN30
  0
ENDTAB
  0
ENDSEC
  0
SECTION
  2
BLOCKS
  0
BLOCK
  5
20
330
1F
100
AcDbEntity
  8
0
100
AcDbBlockBegin
  2
*MODEL_SPACE
 70
     0
 71
     0
 10
0.0
 20
0.0
 30
0.0
  3
*MODEL_SPACE
  1

  0
ENDBLK
  5
21
330
1F
100
AcDbEntity
  8
0
100
AcDbBlockEnd
  0
BLOCK
  5
1C
330
1B
100
AcDbEntity
 67
     1
  8
0
100
AcDbBlockBegin
  2
*PAPER_SPACE
 70
     0
 71
     0
 10
0.0
 20
0.0
 30
0.0
  3
*PAPER_SPACE
  1

  0
ENDBLK
  5
1D
330
1B
100
AcDbEntity
 67
     1
  8
0
100
AcDbBlockEnd
  0
BLOCK
  5
4C
330
4B
100
AcDbEntity
  8
0
100
AcDbBlockBegin
  2
DA_IMAGEDIMGROUP_1
 70
     0
 71
     0
 10
0.0
 20
0.0
 30
0.0
  3
DA_IMAGEDIMGROUP_1
  1

  0
LINE
  5
A5
330
4B
100
AcDbEntity
  8
LAYER0014
  6
CONTINUOUS
 62
     2
100
AcDbLine
 10
-436.5083422915759
 20
159.8855749863945
 30
0.0
 11
-391.0083422915758
 21
159.8855749863945
 31
0.0
  0
LINE
  5
A6
330
4B
100
AcDbEntity
  8
LAYER0014
  6
CONTINUOUS
 62
     2
100
AcDbLine
 10
-436.5083422915759
 20
338.8855749863945
 30
0.0
 11
-391.0083422915758
 21
338.8855749863945
 31
0.0
  0
LINE
  5
A7
330
4B
100
AcDbEntity
  8
LAYER0014
  6
CONTINUOUS
 62
     2
100
AcDbLine
 10
-393.0083422915758
 20
159.8855749863945
 30
0.0
 11
-393.0083422915758
 21
338.8855749863945
 31
0.0
  0
INSERT
  5
AE
330
4B
100
AcDbEntity
  8
LAYER0014
 62
     2
100
AcDbBlockReference
  2
_OPEN30
 10
-393.0083422915758
 20
159.8855749863945
 30
0.0
 41
7.646601831087536
 42
5.031938088706951
 50
270.0
  0
INSERT
  5
AF
330
4B
100
AcDbEntity
  8
LAYER0014
 62
     2
100
AcDbBlockReference
  2
_OPEN30
 10
-393.0083422915758
 20
338.8855749863945
 30
0.0
 41
7.646601831087536
 42
5.031938088706951
 50
90.0
  0
TEXT
  5
B1
330
4B
100
AcDbEntity
  8
LAYER0014
 62
     2
100
AcDbText
 10
-395.0083422915758
 20
237.3855749863945
 30
0.0
 40
10.0
  1
179
 50
90.0
 41
0.8
  7
FDASTYLE0
 72
     5
 11
-395.0083422915758
 21
261.3855749863945
 31
0.0
100
AcDbText
  0
ENDBLK
  5
4D
330
4B
100
AcDbEntity
  8
0
100
AcDbBlockEnd
  0
BLOCK
  5
4F
330
4E
100
AcDbEntity
  8
0
100
AcDbBlockBegin
  2
DA_IMAGEDIMGROUP_2
 70
     0
 71
     0
 10
0.0
 20
0.0
 30
0.0
  3
DA_IMAGEDIMGROUP_2
  1

  0
LINE
  5
B2
330
4E
100
AcDbEntity
  8
LAYER0014
  6
CONTINUOUS
 62
     2
100
AcDbLine
 10
-212.008342291576
 20
181.8855749863945
 30
0.0
 11
-212.008342291576
 21
316.8855749863945
 31
0.0
  0
INSERT
  5
B3
330
4E
100
AcDbEntity
  8
LAYER0014
 62
     2
100
AcDbBlockReference
  2
_OPEN30
 10
-212.008342291576
 20
181.8855749863945
 30
0.0
 41
7.646601831087536
 42
5.031938088706951
 50
270.0
  0
INSERT
  5
B4
330
4E
100
AcDbEntity
  8
LAYER0014
 62
     2
100
AcDbBlockReference
  2
_OPEN30
 10
-212.008342291576
 20
316.8855749863945
 30
0.0
 41
7.646601831087536
 42
5.031938088706951
 50
90.0
  0
TEXT
  5
B5
330
4E
100
AcDbEntity
  8
LAYER0014
 62
     2
100
AcDbText
 10
-214.008342291576
 20
237.3855749863945
 30
0.0
 40
10.0
  1
135
 50
90.0
 41
0.8
  7
FDASTYLE0
 72
     5
 11
-214.008342291576
 21
261.3855749863945
 31
0.0
100
AcDbText
  0
ENDBLK
  5
50
330
4E
100
AcDbEntity
  8
0
100
AcDbBlockEnd
  0
BLOCK
  5
52
330
51
100
AcDbEntity
  8
0
100
AcDbBlockBegin
  2
DA_IMAGEDIMGROUP_3
 70
     0
 71
     0
 10
0.0
 20
0.0
 30
0.0
  3
DA_IMAGEDIMGROUP_3
  1

  0
LINE
  5
B6
330
51
100
AcDbEntity
  8
LAYER0014
  6
CONTINUOUS
 62
     2
100
AcDbLine
 10
-333.0083422915758
 20
116.3855749863945
 30
0.0
 11
-333.0083422915758
 21
94.88557498639455
 31
0.0
  0
LINE
  5
B7
330
51
100
AcDbEntity
  8
LAYER0014
  6
CONTINUOUS
 62
     2
100
AcDbLine
 10
-352.0083422915758
 20
116.6867105952443
 30
0.0
 11
-352.0083422915758
 21
94.88557498639455
 31
0.0
  0
LINE
  5
B8
330
51
100
AcDbEntity
  8
LAYER0014
  6
CONTINUOUS
 62
     2
100
AcDbLine
 10
-352.0083422915758
 20
96.88557498639455
 30
0.0
 11
-333.0083422915758
 21
96.88557498639455
 31
0.0
  0
LINE
  5
B9
330
51
100
AcDbEntity
  8
LAYER0014
  6
CONTINUOUS
 62
     2
100
AcDbLine
 10
-309.6222922915758
 20
96.88557498639455
 30
0.0
 11
-333.0083422915758
 21
96.88557498639455
 31
0.0
  0
INSERT
  5
BA
330
51
100
AcDbEntity
  8
LAYER0014
 62
     2
100
AcDbBlockReference
  2
_OPEN30
 10
-333.0083422915758
 20
96.88557498639455
 30
0.0
 41
7.646601831087536
 42
5.031938088706951
 50
180.0
  0
LINE
  5
BB
330
51
100
AcDbEntity
  8
LAYER0014
  6
CONTINUOUS
 62
     2
100
AcDbLine
 10
-360.7583422915758
 20
96.88557498639455
 30
0.0
 11
-352.0083422915758
 21
96.88557498639455
 31
0.0
  0
INSERT
  5
BC
330
51
100
AcDbEntity
  8
LAYER0014
 62
     2
100
AcDbBlockReference
  2
_OPEN30
 10
-352.0083422915758
 20
96.88557498639455
 30
0.0
 41
7.646601831087536
 42
5.031938088706951
 50
360.0
  0
TEXT
  5
BD
330
51
100
AcDbEntity
  8
LAYER0014
 62
     2
100
AcDbText
 10
-325.6222922915758
 20
98.88557498639455
 30
0.0
 40
10.0
  1
19
 41
0.8
  7
FDASTYLE0
 72
     5
 11
-309.6222922915758
 21
98.88557498639455
 31
0.0
100
AcDbText
  0
ENDBLK
  5
53
330
51
100
AcDbEntity
  8
0
100
AcDbBlockEnd
  0
BLOCK
  5
55
330
54
100
AcDbEntity
  8
0
100
AcDbBlockBegin
  2
DA_IMAGEDIMGROUP_4
 70
     0
 71
     0
 10
0.0
 20
0.0
 30
0.0
  3
DA_IMAGEDIMGROUP_4
  1

  0
LINE
  5
BE
330
54
100
AcDbEntity
  8
LAYER0014
  6
CONTINUOUS
 62
     2
100
AcDbLine
 10
-342.5083422915758
 20
121.3855749863945
 30
0.0
 11
-342.5083422915758
 21
72.38557498639455
 31
0.0
  0
LINE
  5
BF
330
54
100
AcDbEntity
  8
LAYER0014
  6
CONTINUOUS
 62
     2
100
AcDbLine
 10
-242.5083422915758
 20
123.1216417163094
 30
0.0
 11
-242.5083422915758
 21
72.38557498639455
 31
0.0
  0
LINE
  5
C0
330
54
100
AcDbEntity
  8
LAYER0014
  6
CONTINUOUS
 62
     2
100
AcDbLine
 10
-172.5083422915759
 20
123.1216417163094
 30
0.0
 11
-172.5083422915759
 21
72.38557498639455
 31
0.0
  0
LINE
  5
C1
330
54
100
AcDbEntity
  8
LAYER0014
  6
CONTINUOUS
 62
     2
100
AcDbLine
 10
-342.5083422915758
 20
74.38557498639455
 30
0.0
 11
-242.5083422915758
 21
74.38557498639455
 31
0.0
  0
INSERT
  5
C2
330
54
100
AcDbEntity
  8
LAYER0014
 62
     2
100
AcDbBlockReference
  2
_OPEN30
 10
-342.5083422915758
 20
74.38557498639455
 30
0.0
 41
7.646601831087536
 42
5.031938088706951
 50
180.0
  0
INSERT
  5
C3
330
54
100
AcDbEntity
  8
LAYER0014
 62
     2
100
AcDbBlockReference
  2
_OPEN30
 10
-242.5083422915758
 20
74.38557498639455
 30
0.0
 41
7.646601831087536
 42
5.031938088706951
 50
360.0
  0
LINE
  5
C4
330
54
100
AcDbEntity
  8
LAYER0014
  6
CONTINUOUS
 62
     2
100
AcDbLine
 10
-242.5083422915758
 20
74.38557498639455
 30
0.0
 11
-172.5083422915759
 21
74.38557498639455
 31
0.0
  0
INSERT
  5
C5
330
54
100
AcDbEntity
  8
LAYER0014
 62
     2
100
AcDbBlockReference
  2
_OPEN30
 10
-242.5083422915758
 20
74.38557498639455
 30
0.0
 41
7.646601831087536
 42
5.031938088706951
 50
180.0
  0
INSERT
  5
C6
330
54
100
AcDbEntity
  8
LAYER0014
 62
     2
100
AcDbBlockReference
  2
_OPEN30
 10
-172.5083422915759
 20
74.38557498639455
 30
0.0
 41
7.646601831087536
 42
5.031938088706951
 50
360.0
  0
TEXT
  5
C7
330
54
100
AcDbEntity
  8
LAYER0014
 62
     2
100
AcDbText
 10
-304.5083422915758
 20
76.38557498639455
 30
0.0
 40
10.0
  1
100
 41
0.8
  7
FDASTYLE0
 72
     5
 11
-280.5083422915758
 21
76.38557498639455
 31
0.0
100
AcDbText
  0
TEXT
  5
C8
330
54
100
AcDbEntity
  8
LAYER0014
 62
     2
100
AcDbText
 10
-215.5083422915758
 20
76.38557498639455
 30
0.0
 40
10.0
  1
70
 41
0.8
  7
FDASTYLE0
 72
     5
 11
-199.5083422915758
 21
76.38557498639455
 31
0.0
100
AcDbText
  0
ENDBLK
  5
56
330
54
100
AcDbEntity
  8
0
100
AcDbBlockEnd
  0
BLOCK
  5
58
330
57
100
AcDbEntity
  8
0
100
AcDbBlockBegin
  2
DA_IMAGEDIMGROUP_5
 70
     0
 71
     0
 10
0.0
 20
0.0
 30
0.0
  3
DA_IMAGEDIMGROUP_5
  1

  0
LINE
  5
C9
330
57
100
AcDbEntity
  8
LAYER0014
  6
CONTINUOUS
 62
     2
100
AcDbLine
 10
-582.5083422915759
 20
176.3855749863947
 30
0.0
 11
-582.5083422915759
 21
49.88557498639455
 31
0.0
  0
LINE
  5
CA
330
57
100
AcDbEntity
  8
LAYER0014
  6
CONTINUOUS
 62
     2
100
AcDbLine
 10
227.4916577084242
 20
238.3855749863946
 30
0.0
 11
227.4916577084242
 21
49.88557498639455
 31
0.0
  0
LINE
  5
CB
330
57
100
AcDbEntity
  8
LAYER0014
  6
CONTINUOUS
 62
     2
100
AcDbLine
 10
-582.5083422915759
 20
51.88557498639455
 30
0.0
 11
227.4916577084242
 21
51.88557498639455
 31
0.0
  0
INSERT
  5
CC
330
57
100
AcDbEntity
  8
LAYER0014
 62
     2
100
AcDbBlockReference
  2
_OPEN30
 10
-582.5083422915759
 20
51.88557498639455
 30
0.0
 41
7.646601831087536
 42
5.031938088706951
 50
180.0
  0
INSERT
  5
CD
330
57
100
AcDbEntity
  8
LAYER0014
 62
     2
100
AcDbBlockReference
  2
_OPEN30
 10
227.4916577084242
 20
51.88557498639455
 30
0.0
 41
7.646601831087536
 42
5.031938088706951
 50
-0.0000000000000065
  0
TEXT
  5
CE
330
57
100
AcDbEntity
  8
LAYER0014
 62
     2
100
AcDbText
 10
-205.5083422915759
 20
53.88557498639455
 30
0.0
 40
10.0
  1
MAX:860
 41
0.8
  7
FDASTYLE0
 72
     5
 11
-149.5083422915759
 21
53.88557498639455
 31
0.0
100
AcDbText
  0
ENDBLK
  5
59
330
57
100
AcDbEntity
  8
0
100
AcDbBlockEnd
  0
BLOCK
  5
5B
330
5A
100
AcDbEntity
  8
0
100
AcDbBlockBegin
  2
DA_IMAGEDIMGROUP_6
 70
     0
 71
     0
 10
0.0
 20
0.0
 30
0.0
  3
DA_IMAGEDIMGROUP_6
  1

  0
LINE
  5
CF
330
5A
100
AcDbEntity
  8
LAYER0014
  6
CONTINUOUS
 62
     2
100
AcDbLine
 10
-360.5083422915758
 20
139.3855749863945
 30
0.0
 11
-607.0083422915759
 21
139.3855749863945
 31
0.0
  0
LINE
  5
D0
330
5A
100
AcDbEntity
  8
LAYER0014
  6
CONTINUOUS
 62
     2
100
AcDbLine
 10
-360.5083422915758
 20
359.3855749863946
 30
0.0
 11
-607.0083422915759
 21
359.3855749863946
 31
0.0
  0
LINE
  5
D1
330
5A
100
AcDbEntity
  8
LAYER0014
  6
CONTINUOUS
 62
     2
100
AcDbLine
 10
-605.0083422915759
 20
139.3855749863945
 30
0.0
 11
-605.0083422915759
 21
359.3855749863946
 31
0.0
  0
INSERT
  5
D2
330
5A
100
AcDbEntity
  8
LAYER0014
 62
     2
100
AcDbBlockReference
  2
_OPEN30
 10
-605.0083422915759
 20
139.3855749863945
 30
0.0
 41
7.646601831087536
 42
5.031938088706951
 50
270.0
  0
INSERT
  5
D3
330
5A
100
AcDbEntity
  8
LAYER0014
 62
     2
100
AcDbBlockReference
  2
_OPEN30
 10
-605.0083422915759
 20
359.3855749863946
 30
0.0
 41
7.646601831087536
 42
5.031938088706951
 50
90.0
  0
TEXT
  5
D4
330
5A
100
AcDbEntity
  8
LAYER0014
 62
     2
100
AcDbText
 10
-607.0083422915759
 20
237.3855749863945
 30
0.0
 40
10.0
  1
220
 50
90.0
 41
0.8
  7
FDASTYLE0
 72
     5
 11
-607.0083422915759
 21
261.3855749863945
 31
0.0
100
AcDbText
  0
ENDBLK
  5
5C
330
5A
100
AcDbEntity
  8
0
100
AcDbBlockEnd
  0
BLOCK
  5
5E
330
5D
100
AcDbEntity
  8
0
100
AcDbBlockBegin
  2
DA_IMAGEDIMGROUP_7
 70
     0
 71
     0
 10
0.0
 20
0.0
 30
0.0
  3
DA_IMAGEDIMGROUP_7
  1

  0
LINE
  5
D5
330
5D
100
AcDbEntity
  8
LAYER0014
  6
CONTINUOUS
 62
     2
100
AcDbLine
 10
50.4916577084241
 20
149.3855749863947
 30
0.0
 11
301.9916577084242
 21
149.3855749863947
 31
0.0
  0
LINE
  5
D6
330
5D
100
AcDbEntity
  8
LAYER0014
  6
CONTINUOUS
 62
     2
100
AcDbLine
 10
50.4916577084241
 20
349.3855749863947
 30
0.0
 11
301.9916577084242
 21
349.3855749863947
 31
0.0
  0
LINE
  5
D7
330
5D
100
AcDbEntity
  8
LAYER0014
  6
CONTINUOUS
 62
     2
100
AcDbLine
 10
299.9916577084242
 20
149.3855749863947
 30
0.0
 11
299.9916577084242
 21
349.3855749863947
 31
0.0
  0
INSERT
  5
D8
330
5D
100
AcDbEntity
  8
LAYER0014
 62
     2
100
AcDbBlockReference
  2
_OPEN30
 10
299.9916577084242
 20
149.3855749863947
 30
0.0
 41
7.646601831087536
 42
5.031938088706951
 50
270.0
  0
INSERT
  5
D9
330
5D
100
AcDbEntity
  8
LAYER0014
 62
     2
100
AcDbBlockReference
  2
_OPEN30
 10
299.9916577084242
 20
349.3855749863947
 30
0.0
 41
7.646601831087536
 42
5.031938088706951
 50
90.0
  0
TEXT
  5
DA
330
5D
100
AcDbEntity
  8
LAYER0014
 62
     2
100
AcDbText
 10
297.9916577084242
 20
237.3855749863947
 30
0.0
 40
10.0
  1
200
 50
90.0
 41
0.8
  7
FDASTYLE0
 72
     5
 11
297.9916577084242
 21
261.3855749863947
 31
0.0
100
AcDbText
  0
ENDBLK
  5
5F
330
5D
100
AcDbEntity
  8
0
100
AcDbBlockEnd
  0
BLOCK
  5
61
330
60
100
AcDbEntity
  8
0
100
AcDbBlockBegin
  2
DA_IMAGEDIMGROUP_8
 70
     0
 71
     0
 10
0.0
 20
0.0
 30
0.0
  3
DA_IMAGEDIMGROUP_8
  1

  0
LINE
  5
DB
330
60
100
AcDbEntity
  8
LAYER0014
  6
CONTINUOUS
 62
     2
100
AcDbLine
 10
-184.5083422915759
 20
119.3855749863945
 30
0.0
 11
324.4916577084242
 21
119.3855749863945
 31
0.0
  0
LINE
  5
DC
330
60
100
AcDbEntity
  8
LAYER0014
  6
CONTINUOUS
 62
     2
100
AcDbLine
 10
-184.5083422915759
 20
379.3855749863946
 30
0.0
 11
324.4916577084242
 21
379.3855749863946
 31
0.0
  0
LINE
  5
DD
330
60
100
AcDbEntity
  8
LAYER0014
  6
CONTINUOUS
 62
     2
100
AcDbLine
 10
322.4916577084242
 20
119.3855749863945
 30
0.0
 11
322.4916577084242
 21
379.3855749863946
 31
0.0
  0
INSERT
  5
DE
330
60
100
AcDbEntity
  8
LAYER0014
 62
     2
100
AcDbBlockReference
  2
_OPEN30
 10
322.4916577084242
 20
119.3855749863945
 30
0.0
 41
7.646601831087536
 42
5.031938088706951
 50
270.0
  0
INSERT
  5
DF
330
60
100
AcDbEntity
  8
LAYER0014
 62
     2
100
AcDbBlockReference
  2
_OPEN30
 10
322.4916577084242
 20
379.3855749863946
 30
0.0
 41
7.646601831087536
 42
5.031938088706951
 50
90.0
  0
TEXT
  5
E0
330
60
100
AcDbEntity
  8
LAYER0014
 62
     2
100
AcDbText
 10
320.4916577084242
 20
237.3855749863946
 30
0.0
 40
10.0
  1
260
 50
90.0
 41
0.7999999999999991
  7
FDASTYLE0
 72
     5
 11
320.4916577084242
 21
261.3855749863945
 31
0.0
100
AcDbText
  0
ENDBLK
  5
62
330
60
100
AcDbEntity
  8
0
100
AcDbBlockEnd
  0
BLOCK
  5
64
330
63
100
AcDbEntity
  8
0
100
AcDbBlockBegin
  2
DA_IMAGEDIMGROUP_9
 70
     0
 71
     0
 10
0.0
 20
0.0
 30
0.0
  3
DA_IMAGEDIMGROUP_9
  1

  0
LINE
  5
E1
330
63
100
AcDbEntity
  8
LAYER0014
  6
CONTINUOUS
 62
     2
100
AcDbLine
 10
-351.5083422915758
 20
-228.3158523106616
 30
0.0
 11
-351.5083422915758
 21
-249.8158523106616
 31
0.0
  0
LINE
  5
E2
330
63
100
AcDbEntity
  8
LAYER0014
  6
CONTINUOUS
 62
     2
100
AcDbLine
 10
-333.5083422915758
 20
-228.3158523106616
 30
0.0
 11
-333.5083422915758
 21
-249.8158523106616
 31
0.0
  0
LINE
  5
E3
330
63
100
AcDbEntity
  8
LAYER0014
  6
CONTINUOUS
 62
     2
100
AcDbLine
 10
-351.5083422915758
 20
-247.8158523106616
 30
0.0
 11
-333.5083422915758
 21
-247.8158523106616
 31
0.0
  0
LINE
  5
E4
330
63
100
AcDbEntity
  8
LAYER0014
  6
CONTINUOUS
 62
     2
100
AcDbLine
 10
-389.6795026899119
 20
-247.8158523106616
 30
0.0
 11
-351.5083422915758
 21
-247.8158523106616
 31
0.0
  0
INSERT
  5
E5
330
63
100
AcDbEntity
  8
LAYER0014
 62
     2
100
AcDbBlockReference
  2
_OPEN30
 10
-351.5083422915758
 20
-247.8158523106616
 30
0.0
 41
7.646601831087536
 42
5.031938088706951
 50
360.0
  0
LINE
  5
E6
330
63
100
AcDbEntity
  8
LAYER0014
  6
CONTINUOUS
 62
     2
100
AcDbLine
 10
-324.7583422915758
 20
-247.8158523106616
 30
0.0
 11
-333.5083422915758
 21
-247.8158523106616
 31
0.0
  0
INSERT
  5
E7
330
63
100
AcDbEntity
  8
LAYER0014
 62
     2
100
AcDbBlockReference
  2
_OPEN30
 10
-333.5083422915758
 20
-247.8158523106616
 30
0.0
 41
7.646601831087536
 42
5.031938088706951
 50
180.0
  0
TEXT
  5
E8
330
63
100
AcDbEntity
  8
LAYER0014
 62
     2
100
AcDbText
 10
-389.6795026899119
 20
-245.8158523106616
 30
0.0
 40
10.0
  1
18
 41
0.8
  7
FDASTYLE0
 72
     5
 11
-373.6795026899119
 21
-245.8158523106616
 31
0.0
100
AcDbText
  0
TEXT
  5
E9
330
63
100
AcDbEntity
  8
LAYER0014
 62
     2
100
AcDbText
 10
-371.1795026899119
 20
-245.8158523106616
 30
0.0
 40
10.0
  1
h6
 41
0.8
  7
FDASTYLE0
 72
     5
 11
-355.1795026899119
 21
-245.8158523106616
 31
0.0
100
AcDbText
  0
ENDBLK
  5
65
330
63
100
AcDbEntity
  8
0
100
AcDbBlockEnd
  0
BLOCK
  5
67
330
66
100
AcDbEntity
  8
0
100
AcDbBlockBegin
  2
DA_IMAGEDIMGROUP_10
 70
     0
 71
     0
 10
0.0
 20
0.0
 30
0.0
  3
DA_IMAGEDIMGROUP_10
  1

  0
LINE
  5
EA
330
66
100
AcDbEntity
  8
LAYER0014
  6
CONTINUOUS
 62
     2
100
AcDbLine
 10
-585.5083422915759
 20
-217.3158523106616
 30
0.0
 11
-607.0083422915759
 21
-217.3158523106616
 31
0.0
  0
LINE
  5
EB
330
66
100
AcDbEntity
  8
LAYER0014
  6
CONTINUOUS
 62
     2
100
AcDbLine
 10
-459.5083422915759
 20
-71.31585231066156
 30
0.0
 11
-607.0083422915759
 21
-71.31585231066156
 31
0.0
  0
LINE
  5
EC
330
66
100
AcDbEntity
  8
LAYER0014
  6
CONTINUOUS
 62
     2
100
AcDbLine
 10
-605.0083422915759
 20
-217.3158523106616
 30
0.0
 11
-605.0083422915759
 21
-71.31585231066156
 31
0.0
  0
INSERT
  5
ED
330
66
100
AcDbEntity
  8
LAYER0014
 62
     2
100
AcDbBlockReference
  2
_OPEN30
 10
-605.0083422915759
 20
-217.3158523106616
 30
0.0
 41
7.646601831087536
 42
5.031938088706951
 50
270.0
  0
INSERT
  5
EE
330
66
100
AcDbEntity
  8
LAYER0014
 62
     2
100
AcDbBlockReference
  2
_OPEN30
 10
-605.0083422915759
 20
-71.31585231066156
 30
0.0
 41
7.646601831087536
 42
5.031938088706951
 50
90.0
  0
TEXT
  5
EF
330
66
100
AcDbEntity
  8
LAYER0014
 62
     2
100
AcDbText
 10
-607.0083422915759
 20
-156.3158523106616
 30
0.0
 40
10.0
  1
146
 50
90.0
 41
0.8
  7
FDASTYLE0
 72
     5
 11
-607.0083422915759
 21
-132.3158523106616
 31
0.0
100
AcDbText
  0
ENDBLK
  5
68
330
66
100
AcDbEntity
  8
0
100
AcDbBlockEnd
  0
BLOCK
  5
6A
330
69
100
AcDbEntity
  8
0
100
AcDbBlockBegin
  2
DA_IMAGEDIMGROUP_11
 70
     0
 71
     0
 10
0.0
 20
0.0
 30
0.0
  3
DA_IMAGEDIMGROUP_11
  1

  0
LINE
  5
F0
330
69
100
AcDbEntity
  8
LAYER0014
  6
CONTINUOUS
 62
     2
100
AcDbLine
 10
-330.5083422915758
 20
-225.3158523106616
 30
0.0
 11
-301.3949753526071
 21
-225.3158523106616
 31
0.0
  0
LINE
  5
F1
330
69
100
AcDbEntity
  8
LAYER0014
  6
CONTINUOUS
 62
     2
100
AcDbLine
 10
-303.3949753526071
 20
-225.3158523106616
 30
0.0
 11
-303.3949753526071
 21
-217.3158523106616
 31
0.0
  0
LINE
  5
F2
330
69
100
AcDbEntity
  8
LAYER0014
  6
CONTINUOUS
 62
     2
100
AcDbLine
 10
-436.5083422915759
 20
-71.31585231066161
 30
0.0
 11
-301.3949753526071
 21
-71.31585231066161
 31
0.0
  0
LINE
  5
F3
330
69
100
AcDbEntity
  8
LAYER0014
  6
CONTINUOUS
 62
     2
100
AcDbLine
 10
-303.3949753526071
 20
-240.7019023106616
 30
0.0
 11
-303.3949753526071
 21
-225.3158523106616
 31
0.0
  0
INSERT
  5
F4
330
69
100
AcDbEntity
  8
LAYER0014
 62
     2
100
AcDbBlockReference
  2
_OPEN30
 10
-303.3949753526071
 20
-225.3158523106616
 30
0.0
 41
7.646601831087536
 42
5.031938088706951
 50
90.0
  0
LINE
  5
F5
330
69
100
AcDbEntity
  8
LAYER0014
  6
CONTINUOUS
 62
     2
100
AcDbLine
 10
-303.3949753526071
 20
-217.3158523106616
 30
0.0
 11
-303.3949753526071
 21
-127.3158523106617
 31
0.0
  0
INSERT
  5
F6
330
69
100
AcDbEntity
  8
LAYER0014
 62
     2
100
AcDbBlockReference
  2
_OPEN30
 10
-303.3949753526071
 20
-217.3158523106616
 30
0.0
 41
7.646601831087536
 42
5.031938088706951
 50
270.0
  0
INSERT
  5
F7
330
69
100
AcDbEntity
  8
LAYER0014
 62
     2
100
AcDbBlockReference
  2
_OPEN30
 10
-303.3949753526071
 20
-127.3158523106617
 30
0.0
 41
7.646601831087536
 42
5.031938088706951
 50
90.0
  0
LINE
  5
F8
330
69
100
AcDbEntity
  8
LAYER0014
  6
CONTINUOUS
 62
     2
100
AcDbLine
 10
-303.3949753526071
 20
-127.3158523106617
 30
0.0
 11
-303.3949753526071
 21
-71.31585231066161
 31
0.0
  0
INSERT
  5
F9
330
69
100
AcDbEntity
  8
LAYER0014
 62
     2
100
AcDbBlockReference
  2
_OPEN30
 10
-303.3949753526071
 20
-127.3158523106617
 30
0.0
 41
7.646601831087536
 42
5.031938088706951
 50
270.0
  0
INSERT
  5
FA
330
69
100
AcDbEntity
  8
LAYER0014
 62
     2
100
AcDbBlockReference
  2
_OPEN30
 10
-303.3949753526071
 20
-71.31585231066161
 30
0.0
 41
7.646601831087536
 42
5.031938088706951
 50
90.0
  0
TEXT
  5
FB
330
69
100
AcDbEntity
  8
LAYER0014
 62
     2
100
AcDbText
 10
-305.3949753526071
 20
-240.7019023106616
 30
0.0
 40
10.0
  1
8
 50
90.0
 41
0.8
  7
FDASTYLE0
 72
     5
 11
-305.3949753526071
 21
-232.7019023106616
 31
0.0
100
AcDbText
  0
TEXT
  5
FC
330
69
100
AcDbEntity
  8
LAYER0014
 62
     2
100
AcDbText
 10
-305.3949753526071
 20
-188.642652425079
 30
0.0
 40
10.0
  1
90
 50
90.0
 41
0.8
  7
FDASTYLE0
 72
     5
 11
-305.3949753526071
 21
-172.642652425079
 31
0.0
100
AcDbText
  0
TEXT
  5
FD
330
69
100
AcDbEntity
  8
LAYER0014
 62
     2
100
AcDbText
 10
-305.3949753526071
 20
-107.3158523106616
 30
0.0
 40
10.0
  1
56
 50
90.0
 41
0.8
  7
FDASTYLE0
 72
     5
 11
-305.3949753526071
 21
-91.31585231066164
 31
0.0
100
AcDbText
  0
ENDBLK
  5
6B
330
69
100
AcDbEntity
  8
0
100
AcDbBlockEnd
  0
BLOCK
  5
6D
330
6C
100
AcDbEntity
  8
0
100
AcDbBlockBegin
  2
DA_IMAGEDIMGROUP_12
 70
     0
 71
     0
 10
0.0
 20
0.0
 30
0.0
  3
DA_IMAGEDIMGROUP_12
  1

  0
LINE
  5
FE
330
6C
100
AcDbEntity
  8
LAYER0014
  6
CONTINUOUS
 62
     2
100
AcDbLine
 10
-457.5083422915759
 20
-69.31585231066156
 30
0.0
 11
-457.5083422915759
 21
-46.81585231066156
 31
0.0
  0
LINE
  5
FF
330
6C
100
AcDbEntity
  8
LAYER0014
  6
CONTINUOUS
 62
     2
100
AcDbLine
 10
-439.5083422915759
 20
-68.31585231066161
 30
0.0
 11
-439.5083422915759
 21
-46.81585231066156
 31
0.0
  0
LINE
  5
100
330
6C
100
AcDbEntity
  8
LAYER0014
  6
CONTINUOUS
 62
     2
100
AcDbLine
 10
-457.5083422915759
 20
-48.81585231066156
 30
0.0
 11
-439.5083422915759
 21
-48.81585231066156
 31
0.0
  0
LINE
  5
101
330
6C
100
AcDbEntity
  8
LAYER0014
  6
CONTINUOUS
 62
     2
100
AcDbLine
 10
-430.7583422915759
 20
-48.81585231066156
 30
0.0
 11
-439.5083422915759
 21
-48.81585231066156
 31
0.0
  0
INSERT
  5
102
330
6C
100
AcDbEntity
  8
LAYER0014
 62
     2
100
AcDbBlockReference
  2
_OPEN30
 10
-439.5083422915759
 20
-48.81585231066156
 30
0.0
 41
7.646601831087536
 42
5.031938088706951
 50
180.0
  0
LINE
  5
103
330
6C
100
AcDbEntity
  8
LAYER0014
  6
CONTINUOUS
 62
     2
100
AcDbLine
 10
-466.2583422915759
 20
-48.81585231066156
 30
0.0
 11
-457.5083422915759
 21
-48.81585231066156
 31
0.0
  0
INSERT
  5
104
330
6C
100
AcDbEntity
  8
LAYER0014
 62
     2
100
AcDbBlockReference
  2
_OPEN30
 10
-457.5083422915759
 20
-48.81585231066156
 30
0.0
 41
7.646601831087536
 42
5.031938088706951
 50
360.0
  0
TEXT
  5
105
330
6C
100
AcDbEntity
  8
LAYER0014
 62
     2
100
AcDbText
 10
-456.5083422915759
 20
-46.81585231066156
 30
0.0
 40
10.0
  1
18
 41
0.8
  7
FDASTYLE0
 72
     5
 11
-440.5083422915759
 21
-46.81585231066156
 31
0.0
100
AcDbText
  0
ENDBLK
  5
6E
330
6C
100
AcDbEntity
  8
0
100
AcDbBlockEnd
  0
BLOCK
  5
70
330
6F
100
AcDbEntity
  8
0
100
AcDbBlockBegin
  2
DA_IMAGEDIMGROUP_13
 70
     0
 71
     0
 10
0.0
 20
0.0
 30
0.0
  3
DA_IMAGEDIMGROUP_13
  1

  0
LINE
  5
106
330
6F
100
AcDbEntity
  8
LAYER0014
  6
CONTINUOUS
 62
     2
100
AcDbLine
 10
-342.5083422915758
 20
-230.3158523106615
 30
0.0
 11
-342.5083422915758
 21
-272.3158523106616
 31
0.0
  0
LINE
  5
107
330
6F
100
AcDbEntity
  8
LAYER0014
  6
CONTINUOUS
 62
     2
100
AcDbLine
 10
-439.5083422915759
 20
-130.0158523106616
 30
0.0
 11
-439.5083422915759
 21
-272.3158523106616
 31
0.0
  0
LINE
  5
108
330
6F
100
AcDbEntity
  8
LAYER0014
  6
CONTINUOUS
 62
     2
100
AcDbLine
 10
-439.5083422915759
 20
-270.3158523106616
 30
0.0
 11
-342.5083422915758
 21
-270.3158523106616
 31
0.0
  0
INSERT
  5
109
330
6F
100
AcDbEntity
  8
LAYER0014
 62
     2
100
AcDbBlockReference
  2
_OPEN30
 10
-439.5083422915759
 20
-270.3158523106616
 30
0.0
 41
7.646601831087536
 42
5.031938088706951
 50
180.0
  0
INSERT
  5
10A
330
6F
100
AcDbEntity
  8
LAYER0014
 62
     2
100
AcDbBlockReference
  2
_OPEN30
 10
-342.5083422915758
 20
-270.3158523106616
 30
0.0
 41
7.646601831087536
 42
5.031938088706951
 50
360.0
  0
TEXT
  5
10B
330
6F
100
AcDbEntity
  8
LAYER0014
 62
     2
100
AcDbText
 10
-399.0083422915759
 20
-268.3158523106616
 30
0.0
 40
10.0
  1
97
 41
0.8
  7
FDASTYLE0
 72
     5
 11
-383.0083422915759
 21
-268.3158523106616
 31
0.0
100
AcDbText
  0
ENDBLK
  5
71
330
6F
100
AcDbEntity
  8
0
100
AcDbBlockEnd
  0
BLOCK
  5
73
330
72
100
AcDbEntity
  8
0
100
AcDbBlockBegin
  2
DA_IMAGEDIMGROUP_14
 70
     0
 71
     0
 10
0.0
 20
0.0
 30
0.0
  3
DA_IMAGEDIMGROUP_14
  1

  0
LINE
  5
10C
330
72
100
AcDbEntity
  8
LAYER0014
  6
CONTINUOUS
 62
     2
100
AcDbLine
 10
-342.5083422915758
 20
-275.3158523106616
 30
0.0
 11
-342.5083422915758
 21
-294.8158523106616
 31
0.0
  0
LINE
  5
10D
330
72
100
AcDbEntity
  8
LAYER0014
  6
CONTINUOUS
 62
     2
100
AcDbLine
 10
-582.5083422915759
 20
-220.3158523106616
 30
0.0
 11
-582.5083422915759
 21
-294.8158523106616
 31
0.0
  0
LINE
  5
10E
330
72
100
AcDbEntity
  8
LAYER0014
  6
CONTINUOUS
 62
     2
100
AcDbLine
 10
-582.5083422915759
 20
-292.8158523106616
 30
0.0
 11
-342.5083422915758
 21
-292.8158523106616
 31
0.0
  0
INSERT
  5
10F
330
72
100
AcDbEntity
  8
LAYER0014
 62
     2
100
AcDbBlockReference
  2
_OPEN30
 10
-582.5083422915759
 20
-292.8158523106616
 30
0.0
 41
7.646601831087536
 42
5.031938088706951
 50
180.0
  0
INSERT
  5
110
330
72
100
AcDbEntity
  8
LAYER0014
 62
     2
100
AcDbBlockReference
  2
_OPEN30
 10
-342.5083422915758
 20
-292.8158523106616
 30
0.0
 41
7.646601831087536
 42
5.031938088706951
 50
360.0
  0
TEXT
  5
111
330
72
100
AcDbEntity
  8
LAYER0014
 62
     2
100
AcDbText
 10
-474.5083422915759
 20
-290.8158523106616
 30
0.0
 40
10.0
  1
240
 41
0.8
  7
FDASTYLE0
 72
     5
 11
-450.5083422915759
 21
-290.8158523106616
 31
0.0
100
AcDbText
  0
ENDBLK
  5
74
330
72
100
AcDbEntity
  8
0
100
AcDbBlockEnd
  0
BLOCK
  5
76
330
75
100
AcDbEntity
  8
0
100
AcDbBlockBegin
  2
DA_IMAGEDIMGROUP_15
 70
     0
 71
     0
 10
0.0
 20
0.0
 30
0.0
  3
DA_IMAGEDIMGROUP_15
  1

  0
LINE
  5
112
330
75
100
AcDbEntity
  8
LAYER0014
  6
CONTINUOUS
 62
     2
100
AcDbLine
 10
-582.5083422915759
 20
-297.8158523106616
 30
0.0
 11
-582.5083422915759
 21
-317.3158523106616
 31
0.0
  0
LINE
  5
113
330
75
100
AcDbEntity
  8
LAYER0014
  6
CONTINUOUS
 62
     2
100
AcDbLine
 10
-562.5083422915758
 20
-224.2722024640331
 30
0.0
 11
-562.5083422915758
 21
-317.3158523106616
 31
0.0
  0
LINE
  5
114
330
75
100
AcDbEntity
  8
LAYER0014
  6
CONTINUOUS
 62
     2
100
AcDbLine
 10
57.4916577084241
 20
-224.2722024640331
 30
0.0
 11
57.4916577084241
 21
-317.3158523106616
 31
0.0
  0
LINE
  5
115
330
75
100
AcDbEntity
  8
LAYER0014
  6
CONTINUOUS
 62
     2
100
AcDbLine
 10
77.4916577084241
 20
-220.3158523106616
 30
0.0
 11
77.4916577084241
 21
-317.3158523106616
 31
0.0
  0
LINE
  5
116
330
75
100
AcDbEntity
  8
LAYER0014
  6
CONTINUOUS
 62
     2
100
AcDbLine
 10
-582.5083422915759
 20
-315.3158523106616
 30
0.0
 11
-562.5083422915758
 21
-315.3158523106616
 31
0.0
  0
INSERT
  5
117
330
75
100
AcDbEntity
  8
LAYER0014
 62
     2
100
AcDbBlockReference
  2
_OPEN30
 10
-582.5083422915759
 20
-315.3158523106616
 30
0.0
 41
7.646601831087536
 42
5.031938088706951
 50
180.0
  0
INSERT
  5
118
330
75
100
AcDbEntity
  8
LAYER0014
 62
     2
100
AcDbBlockReference
  2
_OPEN30
 10
-562.5083422915758
 20
-315.3158523106616
 30
0.0
 41
7.646601831087536
 42
5.031938088706951
 50
360.0
  0
LINE
  5
119
330
75
100
AcDbEntity
  8
LAYER0014
  6
CONTINUOUS
 62
     2
100
AcDbLine
 10
-562.5083422915758
 20
-315.3158523106616
 30
0.0
 11
57.4916577084241
 21
-315.3158523106616
 31
0.0
  0
INSERT
  5
11A
330
75
100
AcDbEntity
  8
LAYER0014
 62
     2
100
AcDbBlockReference
  2
_OPEN30
 10
-562.5083422915758
 20
-315.3158523106616
 30
0.0
 41
7.646601831087536
 42
5.031938088706951
 50
180.0
  0
INSERT
  5
11B
330
75
100
AcDbEntity
  8
LAYER0014
 62
     2
100
AcDbBlockReference
  2
_OPEN30
 10
57.4916577084241
 20
-315.3158523106616
 30
0.0
 41
7.646601831087536
 42
5.031938088706951
 50
360.0
  0
LINE
  5
11C
330
75
100
AcDbEntity
  8
LAYER0014
  6
CONTINUOUS
 62
     2
100
AcDbLine
 10
57.4916577084241
 20
-315.3158523106616
 30
0.0
 11
77.4916577084241
 21
-315.3158523106616
 31
0.0
  0
INSERT
  5
11D
330
75
100
AcDbEntity
  8
LAYER0014
 62
     2
100
AcDbBlockReference
  2
_OPEN30
 10
57.4916577084241
 20
-315.3158523106616
 30
0.0
 41
7.646601831087536
 42
5.031938088706951
 50
180.0
  0
INSERT
  5
11E
330
75
100
AcDbEntity
  8
LAYER0014
 62
     2
100
AcDbBlockReference
  2
_OPEN30
 10
77.4916577084241
 20
-315.3158523106616
 30
0.0
 41
7.646601831087536
 42
5.031938088706951
 50
360.0
  0
TEXT
  5
11F
330
75
100
AcDbEntity
  8
LAYER0014
 62
     2
100
AcDbText
 10
-580.5083422915759
 20
-313.3158523106616
 30
0.0
 40
10.0
  1
20
 41
0.8
  7
FDASTYLE0
 72
     5
 11
-564.5083422915759
 21
-313.3158523106616
 31
0.0
100
AcDbText
  0
TEXT
  5
120
330
75
100
AcDbEntity
  8
LAYER0014
 62
     2
100
AcDbText
 10
-264.5083422915758
 20
-313.3158523106616
 30
0.0
 40
10.0
  1
620
 41
0.8
  7
FDASTYLE0
 72
     5
 11
-240.5083422915758
 21
-313.3158523106616
 31
0.0
100
AcDbText
  0
TEXT
  5
121
330
75
100
AcDbEntity
  8
LAYER0014
 62
     2
100
AcDbText
 10
59.4916577084241
 20
-313.3158523106616
 30
0.0
 40
10.0
  1
20
 41
0.8
  7
FDASTYLE0
 72
     5
 11
75.4916577084241
 21
-313.3158523106616
 31
0.0
100
AcDbText
  0
ENDBLK
  5
77
330
75
100
AcDbEntity
  8
0
100
AcDbBlockEnd
  0
BLOCK
  5
79
330
78
100
AcDbEntity
  8
0
100
AcDbBlockBegin
  2
DA_IMAGEDIMGROUP_16
 70
     0
 71
     0
 10
0.0
 20
0.0
 30
0.0
  3
DA_IMAGEDIMGROUP_16
  1

  0
LINE
  5
122
330
78
100
AcDbEntity
  8
LAYER0014
  6
CONTINUOUS
 62
     2
100
AcDbLine
 10
-582.5083422915759
 20
-320.3158523106616
 30
0.0
 11
-582.5083422915759
 21
-339.8158523106616
 31
0.0
  0
LINE
  5
123
330
78
100
AcDbEntity
  8
LAYER0014
  6
CONTINUOUS
 62
     2
100
AcDbLine
 10
77.4916577084241
 20
-320.3158523106616
 30
0.0
 11
77.4916577084241
 21
-339.8158523106616
 31
0.0
  0
LINE
  5
124
330
78
100
AcDbEntity
  8
LAYER0014
  6
CONTINUOUS
 62
     2
100
AcDbLine
 10
-582.5083422915759
 20
-337.8158523106616
 30
0.0
 11
77.4916577084241
 21
-337.8158523106616
 31
0.0
  0
INSERT
  5
125
330
78
100
AcDbEntity
  8
LAYER0014
 62
     2
100
AcDbBlockReference
  2
_OPEN30
 10
-582.5083422915759
 20
-337.8158523106616
 30
0.0
 41
7.646601831087536
 42
5.031938088706951
 50
180.0
  0
INSERT
  5
126
330
78
100
AcDbEntity
  8
LAYER0014
 62
     2
100
AcDbBlockReference
  2
_OPEN30
 10
77.4916577084241
 20
-337.8158523106616
 30
0.0
 41
7.646601831087536
 42
5.031938088706951
 50
360.0
  0
TEXT
  5
127
330
78
100
AcDbEntity
  8
LAYER0014
 62
     2
100
AcDbText
 10
-264.5083422915759
 20
-335.8158523106616
 30
0.0
 40
10.0
  1
660
 41
0.8
  7
FDASTYLE0
 72
     5
 11
-240.5083422915759
 21
-335.8158523106616
 31
0.0
100
AcDbText
  0
ENDBLK
  5
7A
330
78
100
AcDbEntity
  8
0
100
AcDbBlockEnd
  0
BLOCK
  5
7C
330
7B
100
AcDbEntity
  8
0
100
AcDbBlockBegin
  2
DA_IMAGEDIMGROUP_17
 70
     0
 71
     0
 10
0.0
 20
0.0
 30
0.0
  3
DA_IMAGEDIMGROUP_17
  1

  0
LINE
  5
128
330
7B
100
AcDbEntity
  8
LAYER0014
  6
CONTINUOUS
 62
     2
100
AcDbLine
 10
-582.5083422915759
 20
-342.8158523106616
 30
0.0
 11
-582.5083422915759
 21
-362.3158523106616
 31
0.0
  0
LINE
  5
129
330
7B
100
AcDbEntity
  8
LAYER0014
  6
CONTINUOUS
 62
     2
100
AcDbLine
 10
297.4916577084238
 20
-270.3158523106617
 30
0.0
 11
297.4916577084238
 21
-362.3158523106616
 31
0.0
  0
LINE
  5
12A
330
7B
100
AcDbEntity
  8
LAYER0014
  6
CONTINUOUS
 62
     2
100
AcDbLine
 10
-582.5083422915759
 20
-360.3158523106616
 30
0.0
 11
297.4916577084238
 21
-360.3158523106616
 31
0.0
  0
INSERT
  5
12B
330
7B
100
AcDbEntity
  8
LAYER0014
 62
     2
100
AcDbBlockReference
  2
_OPEN30
 10
-582.5083422915759
 20
-360.3158523106616
 30
0.0
 41
7.646601831087536
 42
5.031938088706951
 50
180.0
  0
INSERT
  5
12C
330
7B
100
AcDbEntity
  8
LAYER0014
 62
     2
100
AcDbBlockReference
  2
_OPEN30
 10
297.4916577084238
 20
-360.3158523106616
 30
0.0
 41
7.646601831087536
 42
5.031938088706951
 50
360.0
  0
TEXT
  5
12D
330
7B
100
AcDbEntity
  8
LAYER0014
 62
     2
100
AcDbText
 10
-169.7583422915761
 20
-358.3158523106616
 30
0.0
 40
10.0
  1
MAX:930
 41
0.8
  7
FDASTYLE0
 72
     5
 11
-113.7583422915761
 21
-358.3158523106616
 31
0.0
100
AcDbText
  0
ENDBLK
  5
7D
330
7B
100
AcDbEntity
  8
0
100
AcDbBlockEnd
  0
BLOCK
  5
7F
330
7E
100
AcDbEntity
  8
0
100
AcDbBlockBegin
  2
DA_IMAGEDIMGROUP_18
 70
     0
 71
     0
 10
0.0
 20
0.0
 30
0.0
  3
DA_IMAGEDIMGROUP_18
  1

  0
LINE
  5
12E
330
7E
100
AcDbEntity
  8
LAYER0014
  6
CONTINUOUS
 62
     2
100
AcDbLine
 10
-582.5083422915761
 20
-190.8158523106616
 30
0.0
 11
-582.5083422915761
 21
-24.31585231066156
 31
0.0
  0
LINE
  5
12F
330
7E
100
AcDbEntity
  8
LAYER0014
  6
CONTINUOUS
 62
     2
100
AcDbLine
 10
-439.5083422915759
 20
-43.81585231066156
 30
0.0
 11
-439.5083422915759
 21
-24.31585231066156
 31
0.0
  0
LINE
  5
130
330
7E
100
AcDbEntity
  8
LAYER0014
  6
CONTINUOUS
 62
     2
100
AcDbLine
 10
-189.508342291576
 20
-68.31585231066174
 30
0.0
 11
-189.508342291576
 21
-24.31585231066156
 31
0.0
  0
LINE
  5
131
330
7E
100
AcDbEntity
  8
LAYER0014
  6
CONTINUOUS
 62
     2
100
AcDbLine
 10
227.4916577084238
 20
-96.315852310662
 30
0.0
 11
227.4916577084238
 21
-24.31585231066156
 31
0.0
  0
LINE
  5
132
330
7E
100
AcDbEntity
  8
LAYER0014
  6
CONTINUOUS
 62
     2
100
AcDbLine
 10
297.4916577084238
 20
-264.3158523106617
 30
0.0
 11
297.4916577084238
 21
-24.31585231066156
 31
0.0
  0
LINE
  5
133
330
7E
100
AcDbEntity
  8
LAYER0014
  6
CONTINUOUS
 62
     2
100
AcDbLine
 10
-582.5083422915761
 20
-26.31585231066156
 30
0.0
 11
-439.5083422915759
 21
-26.31585231066156
 31
0.0
  0
INSERT
  5
134
330
7E
100
AcDbEntity
  8
LAYER0014
 62
     2
100
AcDbBlockReference
  2
_OPEN30
 10
-582.5083422915761
 20
-26.31585231066156
 30
0.0
 41
7.646601831087536
 42
5.031938088706951
 50
180.0
  0
INSERT
  5
135
330
7E
100
AcDbEntity
  8
LAYER0014
 62
     2
100
AcDbBlockReference
  2
_OPEN30
 10
-439.5083422915759
 20
-26.31585231066156
 30
0.0
 41
7.646601831087536
 42
5.031938088706951
 50
360.0
  0
LINE
  5
136
330
7E
100
AcDbEntity
  8
LAYER0014
  6
CONTINUOUS
 62
     2
100
AcDbLine
 10
-439.5083422915759
 20
-26.31585231066156
 30
0.0
 11
-189.508342291576
 21
-26.31585231066156
 31
0.0
  0
INSERT
  5
137
330
7E
100
AcDbEntity
  8
LAYER0014
 62
     2
100
AcDbBlockReference
  2
_OPEN30
 10
-439.5083422915759
 20
-26.31585231066156
 30
0.0
 41
7.646601831087536
 42
5.031938088706951
 50
180.0
  0
INSERT
  5
138
330
7E
100
AcDbEntity
  8
LAYER0014
 62
     2
100
AcDbBlockReference
  2
_OPEN30
 10
-189.508342291576
 20
-26.31585231066156
 30
0.0
 41
7.646601831087536
 42
5.031938088706951
 50
360.0
  0
LINE
  5
139
330
7E
100
AcDbEntity
  8
LAYER0014
  6
CONTINUOUS
 62
     2
100
AcDbLine
 10
-189.508342291576
 20
-26.31585231066156
 30
0.0
 11
227.4916577084238
 21
-26.31585231066156
 31
0.0
  0
INSERT
  5
13A
330
7E
100
AcDbEntity
  8
LAYER0014
 62
     2
100
AcDbBlockReference
  2
_OPEN30
 10
-189.508342291576
 20
-26.31585231066156
 30
0.0
 41
7.646601831087536
 42
5.031938088706951
 50
180.0
  0
INSERT
  5
13B
330
7E
100
AcDbEntity
  8
LAYER0014
 62
     2
100
AcDbBlockReference
  2
_OPEN30
 10
227.4916577084238
 20
-26.31585231066156
 30
0.0
 41
7.646601831087536
 42
5.031938088706951
 50
360.0
  0
LINE
  5
13C
330
7E
100
AcDbEntity
  8
LAYER0014
  6
CONTINUOUS
 62
     2
100
AcDbLine
 10
227.4916577084238
 20
-26.31585231066156
 30
0.0
 11
297.4916577084238
 21
-26.31585231066156
 31
0.0
  0
INSERT
  5
13D
330
7E
100
AcDbEntity
  8
LAYER0014
 62
     2
100
AcDbBlockReference
  2
_OPEN30
 10
227.4916577084238
 20
-26.31585231066156
 30
0.0
 41
7.646601831087536
 42
5.031938088706951
 50
180.0
  0
INSERT
  5
13E
330
7E
100
AcDbEntity
  8
LAYER0014
 62
     2
100
AcDbBlockReference
  2
_OPEN30
 10
297.4916577084238
 20
-26.31585231066156
 30
0.0
 41
7.646601831087536
 42
5.031938088706951
 50
360.0
  0
TEXT
  5
13F
330
7E
100
AcDbEntity
  8
LAYER0014
 62
     2
100
AcDbText
 10
-523.008342291576
 20
-24.31585231066156
 30
0.0
 40
10.0
  1
143
 41
0.8
  7
FDASTYLE0
 72
     5
 11
-499.008342291576
 21
-24.31585231066156
 31
0.0
100
AcDbText
  0
TEXT
  5
140
330
7E
100
AcDbEntity
  8
LAYER0014
 62
     2
100
AcDbText
 10
-334.5083422915759
 20
-24.31585231066156
 30
0.0
 40
10.0
  1
0～300
 41
0.7692307692307693
  7
FDASTYLE0
 72
     5
 11
-294.5083422915759
 21
-24.31585231066156
 31
0.0
100
AcDbText
  0
TEXT
  5
141
330
7E
100
AcDbEntity
  8
LAYER0014
 62
     2
100
AcDbText
 10
6.991657708423929
 20
-24.31585231066156
 30
0.0
 40
10.0
  1
417
 41
0.8
  7
FDASTYLE0
 72
     5
 11
30.99165770842393
 21
-24.31585231066156
 31
0.0
100
AcDbText
  0
TEXT
  5
142
330
7E
100
AcDbEntity
  8
LAYER0014
 62
     2
100
AcDbText
 10
255.2416577084238
 20
-24.31585231066156
 30
0.0
 40
10.0
  1
70
 41
0.8
  7
FDASTYLE0
 72
     5
 11
271.2416577084238
 21
-24.31585231066156
 31
0.0
100
AcDbText
  0
ENDBLK
  5
80
330
7E
100
AcDbEntity
  8
0
100
AcDbBlockEnd
  0
BLOCK
  5
82
330
81
100
AcDbEntity
  8
0
100
AcDbBlockBegin
  2
DA_IMAGEDIMGROUP_19
 70
     0
 71
     0
 10
0.0
 20
0.0
 30
0.0
  3
DA_IMAGEDIMGROUP_19
  1

  0
LINE
  5
143
330
81
100
AcDbEntity
  8
LAYER0014
  6
CONTINUOUS
 62
     2
100
AcDbLine
 10
80.4916577084241
 20
-217.3158523106616
 30
0.0
 11
321.9916577084238
 21
-217.3158523106616
 31
0.0
  0
LINE
  5
144
330
81
100
AcDbEntity
  8
LAYER0014
  6
CONTINUOUS
 62
     2
100
AcDbLine
 10
230.4916577084238
 20
-107.3158523106617
 30
0.0
 11
321.9916577084238
 21
-107.3158523106617
 31
0.0
  0
LINE
  5
145
330
81
100
AcDbEntity
  8
LAYER0014
  6
CONTINUOUS
 62
     2
100
AcDbLine
 10
319.9916577084238
 20
-217.3158523106616
 30
0.0
 11
319.9916577084238
 21
-107.3158523106617
 31
0.0
  0
INSERT
  5
146
330
81
100
AcDbEntity
  8
LAYER0014
 62
     2
100
AcDbBlockReference
  2
_OPEN30
 10
319.9916577084238
 20
-217.3158523106616
 30
0.0
 41
7.646601831087536
 42
5.031938088706951
 50
270.0
  0
INSERT
  5
147
330
81
100
AcDbEntity
  8
LAYER0014
 62
     2
100
AcDbBlockReference
  2
_OPEN30
 10
319.9916577084238
 20
-107.3158523106617
 30
0.0
 41
7.646601831087536
 42
5.031938088706951
 50
90.0
  0
TEXT
  5
148
330
81
100
AcDbEntity
  8
LAYER0014
 62
     2
100
AcDbText
 10
317.9916577084238
 20
-174.3158523106617
 30
0.0
 40
10.0
  1
110
 50
90.0
 41
0.8
  7
FDASTYLE0
 72
     5
 11
317.9916577084238
 21
-150.3158523106617
 31
0.0
100
AcDbText
  0
ENDBLK
  5
83
330
81
100
AcDbEntity
  8
0
100
AcDbBlockEnd
  0
BLOCK
  5
85
330
84
100
AcDbEntity
  8
0
100
AcDbBlockBegin
  2
DA_IMAGEDIMGROUP_20
 70
     0
 71
     0
 10
0.0
 20
0.0
 30
0.0
  3
DA_IMAGEDIMGROUP_20
  1

  0
LINE
  5
149
330
84
100
AcDbEntity
  8
LAYER0014
  6
CONTINUOUS
 62
     2
100
AcDbLine
 10
300.4916577084238
 20
-267.3158523106617
 30
0.0
 11
344.4916577084238
 21
-267.3158523106617
 31
0.0
  0
LINE
  5
14A
330
84
100
AcDbEntity
  8
LAYER0014
  6
CONTINUOUS
 62
     2
100
AcDbLine
 10
324.9916577084238
 20
-107.3158523106617
 30
0.0
 11
344.4916577084238
 21
-107.3158523106617
 31
0.0
  0
LINE
  5
14B
330
84
100
AcDbEntity
  8
LAYER0014
  6
CONTINUOUS
 62
     2
100
AcDbLine
 10
342.4916577084238
 20
-267.3158523106617
 30
0.0
 11
342.4916577084238
 21
-107.3158523106617
 31
0.0
  0
INSERT
  5
14C
330
84
100
AcDbEntity
  8
LAYER0014
 62
     2
100
AcDbBlockReference
  2
_OPEN30
 10
342.4916577084238
 20
-267.3158523106617
 30
0.0
 41
7.646601831087536
 42
5.031938088706951
 50
270.0
  0
INSERT
  5
14D
330
84
100
AcDbEntity
  8
LAYER0014
 62
     2
100
AcDbBlockReference
  2
_OPEN30
 10
342.4916577084238
 20
-107.3158523106617
 30
0.0
 41
7.646601831087536
 42
5.031938088706951
 50
90.0
  0
TEXT
  5
14E
330
84
100
AcDbEntity
  8
LAYER0014
 62
     2
100
AcDbText
 10
340.4916577084238
 20
-199.3158523106617
 30
0.0
 40
10.0
  1
160
 50
90.0
 41
0.8
  7
FDASTYLE0
 72
     5
 11
340.4916577084238
 21
-175.3158523106617
 31
0.0
100
AcDbText
  0
ENDBLK
  5
86
330
84
100
AcDbEntity
  8
0
100
AcDbBlockEnd
  0
BLOCK
  5
88
330
87
100
AcDbEntity
  8
0
100
AcDbBlockBegin
  2
DA_IMAGEDIMGROUP_21
 70
     0
 71
     0
 10
0.0
 20
0.0
 30
0.0
  3
DA_IMAGEDIMGROUP_21
  1

  0
LINE
  5
14F
330
87
100
AcDbEntity
  8
LAYER0014
  6
CONTINUOUS
 62
     2
100
AcDbLine
 10
409.9916577084241
 20
-270.3158523106604
 30
0.0
 11
604.991657708424
 21
-270.3158523106604
 31
0.0
  0
INSERT
  5
150
330
87
100
AcDbEntity
  8
LAYER0014
 62
     2
100
AcDbBlockReference
  2
_OPEN30
 10
409.9916577084241
 20
-270.3158523106604
 30
0.0
 41
7.646601831087536
 42
5.031938088706951
 50
180.0
  0
INSERT
  5
151
330
87
100
AcDbEntity
  8
LAYER0014
 62
     2
100
AcDbBlockReference
  2
_OPEN30
 10
604.991657708424
 20
-270.3158523106604
 30
0.0
 41
7.646601831087536
 42
5.031938088706951
 50
360.0
  0
LINE
  5
152
330
87
100
AcDbEntity
  8
LAYER0014
  6
CONTINUOUS
 62
     2
100
AcDbLine
 10
409.9916577084241
 20
-228.3158523106604
 30
0.0
 11
409.9916577084241
 21
-272.3158523106604
 31
0.0
  0
LINE
  5
153
330
87
100
AcDbEntity
  8
LAYER0014
  6
CONTINUOUS
 62
     2
100
AcDbLine
 10
604.991657708424
 20
-228.3158523106604
 30
0.0
 11
604.991657708424
 21
-272.3158523106604
 31
0.0
  0
TEXT
  5
154
330
87
100
AcDbEntity
  8
LAYER0014
 62
     2
100
AcDbText
 10
495.491657708424
 20
-268.3158523106604
 30
0.0
 40
10.0
  1
195
 41
0.8000000000000019
  7
FDASTYLE0
 72
     5
 11
519.4916577084241
 21
-268.3158523106604
 31
0.0
100
AcDbText
  0
ENDBLK
  5
89
330
87
100
AcDbEntity
  8
0
100
AcDbBlockEnd
  0
BLOCK
  5
8B
330
8A
100
AcDbEntity
  8
0
100
AcDbBlockBegin
  2
DC_GROUP_1
 70
     0
 71
     0
 10
0.0
 20
0.0
 30
0.0
  3
DC_GROUP_1
  1

  0
LINE
  5
155
330
8A
100
AcDbEntity
  8
0
  6
CENTER
 62
     7
100
AcDbLine
 10
433.8373327386262
 20
416.6465209634255
 30
0.0
 11
399.0373327386262
 21
416.6465209634255
 31
0.0
  0
LINE
  5
156
330
8A
100
AcDbEntity
  8
0
  6
CENTER
 62
     2
100
AcDbLine
 10
416.4373327386262
 20
434.0465209634255
 30
0.0
 11
416.4373327386262
 21
399.2465209634256
 31
0.0
  0
ENDBLK
  5
8C
330
8A
100
AcDbEntity
  8
0
100
AcDbBlockEnd
  0
BLOCK
  5
8E
330
8D
100
AcDbEntity
  8
0
100
AcDbBlockBegin
  2
DA_IMAGEDIMGROUP_22
 70
     0
 71
     0
 10
0.0
 20
0.0
 30
0.0
  3
DA_IMAGEDIMGROUP_22
  1

  0
LINE
  5
157
330
8D
100
AcDbEntity
  8
LAYER0014
  6
CONTINUOUS
 62
     2
100
AcDbLine
 10
456.4373327386263
 20
398.6465209634256
 30
0.0
 11
456.4373327386263
 21
377.1465209634256
 31
0.0
  0
LINE
  5
158
330
8D
100
AcDbEntity
  8
LAYER0014
  6
CONTINUOUS
 62
     2
100
AcDbLine
 10
476.4373327386263
 20
402.6466455426845
 30
0.0
 11
476.4373327386263
 21
377.1465209634256
 31
0.0
  0
LINE
  5
159
330
8D
100
AcDbEntity
  8
LAYER0014
  6
CONTINUOUS
 62
     2
100
AcDbLine
 10
456.4373327386263
 20
379.1465209634256
 30
0.0
 11
476.4373327386263
 21
379.1465209634256
 31
0.0
  0
LINE
  5
15A
330
8D
100
AcDbEntity
  8
LAYER0014
  6
CONTINUOUS
 62
     2
100
AcDbLine
 10
485.1873327386263
 20
379.1465209634256
 30
0.0
 11
476.4373327386263
 21
379.1465209634256
 31
0.0
  0
INSERT
  5
15B
330
8D
100
AcDbEntity
  8
LAYER0014
 62
     2
100
AcDbBlockReference
  2
_OPEN30
 10
476.4373327386263
 20
379.1465209634256
 30
0.0
 41
7.646601831087536
 42
5.031938088706951
 50
180.0
  0
LINE
  5
15C
330
8D
100
AcDbEntity
  8
LAYER0014
  6
CONTINUOUS
 62
     2
100
AcDbLine
 10
447.6873327386263
 20
379.1465209634256
 30
0.0
 11
456.4373327386263
 21
379.1465209634256
 31
0.0
  0
INSERT
  5
15D
330
8D
100
AcDbEntity
  8
LAYER0014
 62
     2
100
AcDbBlockReference
  2
_OPEN30
 10
456.4373327386263
 20
379.1465209634256
 30
0.0
 41
7.646601831087536
 42
5.031938088706951
 50
360.0
  0
TEXT
  5
15E
330
8D
100
AcDbEntity
  8
LAYER0014
 62
     2
100
AcDbText
 10
458.4373327386263
 20
381.1465209634256
 30
0.0
 40
10.0
  1
20
 41
0.8
  7
FDASTYLE0
 72
     5
 11
474.4373327386263
 21
381.1465209634256
 31
0.0
100
AcDbText
  0
ENDBLK
  5
8F
330
8D
100
AcDbEntity
  8
0
100
AcDbBlockEnd
  0
BLOCK
  5
91
330
90
100
AcDbEntity
  8
0
100
AcDbBlockBegin
  2
DA_IMAGEDIMGROUP_23
 70
     0
 71
     0
 10
0.0
 20
0.0
 30
0.0
  3
DA_IMAGEDIMGROUP_23
  1

  0
LINE
  5
15F
330
90
100
AcDbEntity
  8
LAYER0014
  6
CONTINUOUS
 62
     2
100
AcDbLine
 10
641.4373327386264
 20
403.1465209634256
 30
0.0
 11
641.4373327386264
 21
377.1465209634256
 31
0.0
  0
LINE
  5
160
330
90
100
AcDbEntity
  8
LAYER0014
  6
CONTINUOUS
 62
     2
100
AcDbLine
 10
666.4373327386263
 20
404.6465209634256
 30
0.0
 11
666.4373327386263
 21
377.1465209634256
 31
0.0
  0
LINE
  5
161
330
90
100
AcDbEntity
  8
LAYER0014
  6
CONTINUOUS
 62
     2
100
AcDbLine
 10
641.4373327386264
 20
379.1465209634256
 30
0.0
 11
666.4373327386263
 21
379.1465209634256
 31
0.0
  0
LINE
  5
162
330
90
100
AcDbEntity
  8
LAYER0014
  6
CONTINUOUS
 62
     2
100
AcDbLine
 10
675.1873327386263
 20
379.1465209634256
 30
0.0
 11
666.4373327386263
 21
379.1465209634256
 31
0.0
  0
INSERT
  5
163
330
90
100
AcDbEntity
  8
LAYER0014
 62
     2
100
AcDbBlockReference
  2
_OPEN30
 10
666.4373327386263
 20
379.1465209634256
 30
0.0
 41
7.646601831087536
 42
5.031938088706951
 50
180.0
  0
LINE
  5
164
330
90
100
AcDbEntity
  8
LAYER0014
  6
CONTINUOUS
 62
     2
100
AcDbLine
 10
632.6873327386264
 20
379.1465209634256
 30
0.0
 11
641.4373327386264
 21
379.1465209634256
 31
0.0
  0
INSERT
  5
165
330
90
100
AcDbEntity
  8
LAYER0014
 62
     2
100
AcDbBlockReference
  2
_OPEN30
 10
641.4373327386264
 20
379.1465209634256
 30
0.0
 41
7.646601831087536
 42
5.031938088706951
 50
360.0
  0
TEXT
  5
166
330
90
100
AcDbEntity
  8
LAYER0014
 62
     2
100
AcDbText
 10
645.9373327386263
 20
381.1465209634256
 30
0.0
 40
10.0
  1
25
 41
0.8
  7
FDASTYLE0
 72
     5
 11
661.9373327386263
 21
381.1465209634256
 31
0.0
100
AcDbText
  0
ENDBLK
  5
92
330
90
100
AcDbEntity
  8
0
100
AcDbBlockEnd
  0
BLOCK
  5
94
330
93
100
AcDbEntity
  8
0
100
AcDbBlockBegin
  2
DA_IMAGEDIMGROUP_24
 70
     0
 71
     0
 10
0.0
 20
0.0
 30
0.0
  3
DA_IMAGEDIMGROUP_24
  1

  0
LINE
  5
167
330
93
100
AcDbEntity
  8
LAYER0014
  6
CONTINUOUS
 62
     2
100
AcDbLine
 10
456.4373327386263
 20
374.1465209634256
 30
0.0
 11
456.4373327386263
 21
354.6465209634256
 31
0.0
  0
LINE
  5
168
330
93
100
AcDbEntity
  8
LAYER0014
  6
CONTINUOUS
 62
     2
100
AcDbLine
 10
666.4373327386263
 20
374.1465209634256
 30
0.0
 11
666.4373327386263
 21
354.6465209634256
 31
0.0
  0
LINE
  5
169
330
93
100
AcDbEntity
  8
LAYER0014
  6
CONTINUOUS
 62
     2
100
AcDbLine
 10
456.4373327386263
 20
356.6465209634256
 30
0.0
 11
666.4373327386263
 21
356.6465209634256
 31
0.0
  0
INSERT
  5
16A
330
93
100
AcDbEntity
  8
LAYER0014
 62
     2
100
AcDbBlockReference
  2
_OPEN30
 10
456.4373327386263
 20
356.6465209634256
 30
0.0
 41
7.646601831087536
 42
5.031938088706951
 50
180.0
  0
INSERT
  5
16B
330
93
100
AcDbEntity
  8
LAYER0014
 62
     2
100
AcDbBlockReference
  2
_OPEN30
 10
666.4373327386263
 20
356.6465209634256
 30
0.0
 41
7.646601831087536
 42
5.031938088706951
 50
360.0
  0
TEXT
  5
16C
330
93
100
AcDbEntity
  8
LAYER0014
 62
     2
100
AcDbText
 10
549.4373327386263
 20
358.6465209634256
 30
0.0
 40
10.0
  1
210
 41
0.8
  7
FDASTYLE0
 72
     5
 11
573.4373327386263
 21
358.6465209634256
 31
0.0
100
AcDbText
  0
ENDBLK
  5
95
330
93
100
AcDbEntity
  8
0
100
AcDbBlockEnd
  0
BLOCK
  5
97
330
96
100
AcDbEntity
  8
0
100
AcDbBlockBegin
  2
DC_GROUP_2
 70
     0
 71
     0
 10
0.0
 20
0.0
 30
0.0
  3
DC_GROUP_2
  1

  0
TEXT
  5
16E
330
96
100
AcDbEntity
  8
LAYER0013
 62
     2
100
AcDbText
 10
496.4373327386263
 20
320.6875739877359
 30
0.0
 40
12.5
  1
ハンドルジョイント
 41
0.6267409470752089
  7
FDASTYLE1
 72
     5
 11
586.4373327386263
 21
320.6875739877359
 31
0.0
100
AcDbText
  0
LINE
  5
16F
330
96
100
AcDbEntity
  8
LAYER0013
  6
CONTINUOUS
 62
     2
100
AcDbLine
 10
495.1873327386263
 20
318.1875739877359
 30
0.0
 11
587.6873327386263
 21
318.1875739877359
 31
0.0
  0
ENDBLK
  5
98
330
96
100
AcDbEntity
  8
0
100
AcDbBlockEnd
  0
BLOCK
  5
9A
330
99
100
AcDbEntity
  8
0
100
AcDbBlockBegin
  2
DA_IMAGEDIMGROUP_25
 70
     0
 71
     0
 10
0.0
 20
0.0
 30
0.0
  3
DA_IMAGEDIMGROUP_25
  1

  0
LINE
  5
170
330
99
100
AcDbEntity
  8
LAYER0014
  6
CONTINUOUS
 62
     2
100
AcDbLine
 10
-365.5083422915758
 20
-187.3158523106616
 30
0.0
 11
-414.6050174854
 21
-187.3158523106616
 31
0.0
  0
LINE
  5
171
330
99
100
AcDbEntity
  8
LAYER0014
  6
CONTINUOUS
 62
     2
100
AcDbLine
 10
-412.6050174854
 20
-217.3158523106616
 30
0.0
 11
-412.6050174854
 21
-187.3158523106616
 31
0.0
  0
INSERT
  5
172
330
99
100
AcDbEntity
  8
LAYER0014
 62
     2
100
AcDbBlockReference
  2
_OPEN30
 10
-412.6050174854
 20
-217.3158523106616
 30
0.0
 41
7.646601831087536
 42
5.031938088706951
 50
270.0
  0
INSERT
  5
173
330
99
100
AcDbEntity
  8
LAYER0014
 62
     2
100
AcDbBlockReference
  2
_OPEN30
 10
-412.6050174854
 20
-187.3158523106616
 30
0.0
 41
7.646601831087536
 42
5.031938088706951
 50
90.0
  0
TEXT
  5
174
330
99
100
AcDbEntity
  8
LAYER0014
 62
     2
100
AcDbText
 10
-414.6050174854
 20
-210.3158523106616
 30
0.0
 40
10.0
  1
30
 50
90.0
 41
0.8
  7
FDASTYLE0
 72
     5
 11
-414.6050174854
 21
-194.3158523106616
 31
0.0
100
AcDbText
  0
ENDBLK
  5
9B
330
99
100
AcDbEntity
  8
0
100
AcDbBlockEnd
  0
BLOCK
  5
9D
330
9C
100
AcDbEntity
  8
0
100
AcDbBlockBegin
  2
DA_IMAGEDIMGROUP_26
 70
     0
 71
     0
 10
0.0
 20
0.0
 30
0.0
  3
DA_IMAGEDIMGROUP_26
  1

  0
LINE
  5
175
330
9C
100
AcDbEntity
  8
LAYER0014
  6
CONTINUOUS
 62
     2
100
AcDbLine
 10
498.491657708424
 20
-220.3158523106615
 30
0.0
 11
498.491657708424
 21
-249.8158523106604
 31
0.0
  0
LINE
  5
176
330
9C
100
AcDbEntity
  8
LAYER0014
  6
CONTINUOUS
 62
     2
100
AcDbLine
 10
516.4916577084241
 20
-220.3158523106615
 30
0.0
 11
516.4916577084241
 21
-249.8158523106604
 31
0.0
  0
LINE
  5
177
330
9C
100
AcDbEntity
  8
LAYER0014
  6
CONTINUOUS
 62
     2
100
AcDbLine
 10
498.491657708424
 20
-247.8158523106604
 30
0.0
 11
516.4916577084241
 21
-247.8158523106604
 31
0.0
  0
LINE
  5
178
330
9C
100
AcDbEntity
  8
LAYER0014
  6
CONTINUOUS
 62
     2
100
AcDbLine
 10
460.3204973100879
 20
-247.8158523106604
 30
0.0
 11
498.491657708424
 21
-247.8158523106604
 31
0.0
  0
INSERT
  5
179
330
9C
100
AcDbEntity
  8
LAYER0014
 62
     2
100
AcDbBlockReference
  2
_OPEN30
 10
498.491657708424
 20
-247.8158523106604
 30
0.0
 41
7.646601831087536
 42
5.031938088706951
 50
360.0
  0
LINE
  5
17A
330
9C
100
AcDbEntity
  8
LAYER0014
  6
CONTINUOUS
 62
     2
100
AcDbLine
 10
525.2416577084241
 20
-247.8158523106604
 30
0.0
 11
516.4916577084241
 21
-247.8158523106604
 31
0.0
  0
INSERT
  5
17B
330
9C
100
AcDbEntity
  8
LAYER0014
 62
     2
100
AcDbBlockReference
  2
_OPEN30
 10
516.4916577084241
 20
-247.8158523106604
 30
0.0
 41
7.646601831087536
 42
5.031938088706951
 50
180.0
  0
TEXT
  5
17C
330
9C
100
AcDbEntity
  8
LAYER0014
 62
     2
100
AcDbText
 10
460.3204973100879
 20
-245.8158523106604
 30
0.0
 40
10.0
  1
18
 41
0.8
  7
FDASTYLE0
 72
     5
 11
476.3204973100879
 21
-245.8158523106604
 31
0.0
100
AcDbText
  0
TEXT
  5
17D
330
9C
100
AcDbEntity
  8
LAYER0014
 62
     2
100
AcDbText
 10
478.8204973100879
 20
-245.8158523106604
 30
0.0
 40
10.0
  1
H7
 41
0.8
  7
FDASTYLE0
 72
     5
 11
494.8204973100879
 21
-245.8158523106604
 31
0.0
100
AcDbText
  0
ENDBLK
  5
9E
330
9C
100
AcDbEntity
  8
0
100
AcDbBlockEnd
  0
BLOCK
  5
A0
330
9F
100
AcDbEntity
  8
0
100
AcDbBlockBegin
  2
DA_IMAGEDIMGROUP_27
 70
     0
 71
     0
 10
0.0
 20
0.0
 30
0.0
  3
DA_IMAGEDIMGROUP_27
  1

  0
LINE
  5
17E
330
9F
100
AcDbEntity
  8
LAYER0014
  6
CONTINUOUS
 62
     2
100
AcDbLine
 10
519.4916577084241
 20
-213.3158523106617
 30
0.0
 11
540.9916577084241
 21
-213.3158523106617
 31
0.0
  0
LINE
  5
17F
330
9F
100
AcDbEntity
  8
LAYER0014
  6
CONTINUOUS
 62
     2
100
AcDbLine
 10
538.9916577084241
 20
-217.3158523106615
 30
0.0
 11
538.9916577084241
 21
-213.3158523106617
 31
0.0
  0
LINE
  5
180
330
9F
100
AcDbEntity
  8
LAYER0014
  6
CONTINUOUS
 62
     2
100
AcDbLine
 10
538.9916577084241
 20
-232.7019023106615
 30
0.0
 11
538.9916577084241
 21
-217.3158523106615
 31
0.0
  0
INSERT
  5
181
330
9F
100
AcDbEntity
  8
LAYER0014
 62
     2
100
AcDbBlockReference
  2
_OPEN30
 10
538.9916577084241
 20
-217.3158523106615
 30
0.0
 41
7.646601831087536
 42
5.031938088706951
 50
90.0
  0
LINE
  5
182
330
9F
100
AcDbEntity
  8
LAYER0014
  6
CONTINUOUS
 62
     2
100
AcDbLine
 10
538.9916577084241
 20
-204.5658523106617
 30
0.0
 11
538.9916577084241
 21
-213.3158523106617
 31
0.0
  0
INSERT
  5
183
330
9F
100
AcDbEntity
  8
LAYER0014
 62
     2
100
AcDbBlockReference
  2
_OPEN30
 10
538.9916577084241
 20
-213.3158523106617
 30
0.0
 41
7.646601831087536
 42
5.031938088706951
 50
270.0
  0
TEXT
  5
184
330
9F
100
AcDbEntity
  8
LAYER0014
 62
     2
100
AcDbText
 10
536.9916577084241
 20
-232.7019023106615
 30
0.0
 40
10.0
  1
4
 50
90.0
 41
0.8
  7
FDASTYLE0
 72
     5
 11
536.9916577084241
 21
-224.7019023106615
 31
0.0
100
AcDbText
  0
ENDBLK
  5
A1
330
9F
100
AcDbEntity
  8
0
100
AcDbBlockEnd
  0
BLOCK
  5
A3
330
A2
100
AcDbEntity
  8
0
100
AcDbBlockBegin
  2
DC_GROUP_3
 70
     0
 71
     0
 10
0.0
 20
0.0
 30
0.0
  3
DC_GROUP_3
  1

  0
LINE
  5
185
330
A2
100
AcDbEntity
  8
ZUWAKU
  6
CONTINUOUS
 62
     3
100
AcDbLine
 10
-693.75
 20
481.25
 30
0.0
 11
693.75
 21
481.25
 31
0.0
  0
LINE
  5
186
330
A2
100
AcDbEntity
  8
ZUWAKU
  6
CONTINUOUS
 62
     3
100
AcDbLine
 10
-693.75
 20
-481.25
 30
0.0
 11
-693.75
 21
481.25
 31
0.0
  0
LINE
  5
187
330
A2
100
AcDbEntity
  8
ZUWAKU
  6
CONTINUOUS
 62
     3
100
AcDbLine
 10
693.75
 20
-481.25
 30
0.0
 11
-693.75
 21
-481.25
 31
0.0
  0
LINE
  5
188
330
A2
100
AcDbEntity
  8
ZUWAKU
  6
CONTINUOUS
 62
     3
100
AcDbLine
 10
693.75
 20
481.25
 30
0.0
 11
693.75
 21
-481.25
 31
0.0
  0
ENDBLK
  5
A4
330
A2
100
AcDbEntity
  8
0
100
AcDbBlockEnd
  0
BLOCK
  5
A9
330
A8
100
AcDbEntity
  8
0
100
AcDbBlockBegin
  2
_OPEN30
 70
     0
 71
     0
 10
0.0
 20
0.0
 30
0.0
  3
_OPEN30
  1

  0
LINE
  5
AB
330
A8
100
AcDbEntity
  8
0
  6
BYBLOCK
 62
     0
100
AcDbLine
 10
-1.0
 20
0.267949
 30
0.0
 11
0.0
 21
0.0
 31
0.0
  0
LINE
  5
AC
330
A8
100
AcDbEntity
  8
0
  6
BYBLOCK
 62
     0
100
AcDbLine
 10
0.0
 20
0.0
 30
0.0
 11
-1.0
 21
-0.267949
 31
0.0
  0
LINE
  5
AD
330
A8
100
AcDbEntity
  8
0
  6
BYBLOCK
 62
     0
100
AcDbLine
 10
0.0
 20
0.0
 30
0.0
 11
-1.0
 21
0.0
 31
0.0
  0
ENDBLK
  5
AA
330
A8
100
AcDbEntity
  8
0
100
AcDbBlockEnd
  0
ENDSEC
  0
SECTION
  2
ENTITIES
  0
CIRCLE
  5
189
330
1F
100
AcDbEntity
  8
0
  6
CONTINUOUS
 62
     3
100
AcDbCircle
 10
-342.5083422915758
 20
249.3855749863945
 30
0.0
 40
12.5
  0
ARC
  5
18A
330
1F
100
AcDbEntity
  8
0
  6
CONTINUOUS
 62
     3
100
AcDbCircle
 10
-342.5083422915758
 20
359.3855749863946
 30
0.0
 40
9.5
100
AcDbArc
 50
180.0
 51
360.0
  0
ARC
  5
18B
330
1F
100
AcDbEntity
  8
0
  6
CONTINUOUS
 62
     3
100
AcDbCircle
 10
-342.5083422915758
 20
139.3855749863945
 30
0.0
 40
9.5
100
AcDbArc
 50
0.0
 51
180.0
  0
ARC
  5
18C
330
1F
100
AcDbEntity
  8
0
  6
CONTINUOUS
 62
     3
100
AcDbCircle
 10
-342.5083422915758
 20
359.3855749863946
 30
0.0
 40
20.0
100
AcDbArc
 50
180.0
 51
360.0
  0
ARC
  5
18D
330
1F
100
AcDbEntity
  8
0
  6
CONTINUOUS
 62
     3
100
AcDbCircle
 10
-342.5083422915758
 20
139.3855749863945
 30
0.0
 40
20.0
100
AcDbArc
 50
0.0
 51
180.0
  0
ARC
  5
18E
330
1F
100
AcDbEntity
  8
0
  6
CONTINUOUS
 62
     3
100
AcDbCircle
 10
-342.5083422915758
 20
229.3855749863945
 30
0.0
 40
150.0
100
AcDbArc
 50
93.63116296669304
 51
121.7883306170516
  0
ARC
  5
18F
330
1F
100
AcDbEntity
  8
0
  6
CONTINUOUS
 62
     3
100
AcDbCircle
 10
-393.6292220852016
 20
368.2763797544773
 30
0.0
 40
2.0
100
AcDbArc
 50
22.38133372826529
 51
110.2069081133509
  0
ARC
  5
190
330
1F
100
AcDbEntity
  8
0
  6
CONTINUOUS
 62
     3
100
AcDbCircle
 10
-342.5083422915758
 20
269.3855749863945
 30
0.0
 40
150.0
100
AcDbArc
 50
238.2116693829483
 51
266.3688370333069
  0
ARC
  5
191
330
1F
100
AcDbEntity
  8
0
  6
CONTINUOUS
 62
     3
100
AcDbCircle
 10
-393.6292220852017
 20
130.4947702183119
 30
0.0
 40
2.0
100
AcDbArc
 50
249.7930918866491
 51
337.6186662717347
  0
LINE
  5
192
330
1F
100
AcDbEntity
  8
0
  6
CONTINUOUS
 62
     3
100
AcDbLine
 10
-322.5083422915758
 20
359.3855749863946
 30
0.0
 11
-322.5083422915758
 21
379.3855749863946
 31
0.0
  0
LINE
  5
193
330
1F
100
AcDbEntity
  8
0
  6
CONTINUOUS
 62
     3
100
AcDbLine
 10
-362.5083422915758
 20
359.3855749863946
 30
0.0
 11
-362.5083422915758
 21
378.0462624595796
 31
0.0
  0
LINE
  5
194
330
1F
100
AcDbEntity
  8
0
  6
CONTINUOUS
 62
     3
100
AcDbLine
 10
-333.0083422915758
 20
359.3855749863946
 30
0.0
 11
-333.0083422915758
 21
379.3855749863946
 31
0.0
  0
LINE
  5
195
330
1F
100
AcDbEntity
  8
0
  6
CONTINUOUS
 62
     3
100
AcDbLine
 10
-352.0083422915758
 20
359.3855749863946
 30
0.0
 11
-352.0083422915758
 21
379.0844393775448
 31
0.0
  0
LINE
  5
196
330
1F
100
AcDbEntity
  8
0
  6
CONTINUOUS
 62
     3
100
AcDbLine
 10
-333.0083422915758
 20
379.3855749863946
 30
0.0
 11
-187.5083422915759
 21
379.3855749863946
 31
0.0
  0
LINE
  5
197
330
1F
100
AcDbEntity
  8
0
  6
CONTINUOUS
 62
     3
100
AcDbLine
 10
-333.0083422915758
 20
139.3855749863945
 30
0.0
 11
-333.0083422915758
 21
119.3855749863945
 31
0.0
  0
LINE
  5
198
330
1F
100
AcDbEntity
  8
0
  6
CONTINUOUS
 62
     3
100
AcDbLine
 10
-322.5083422915758
 20
139.3855749863945
 30
0.0
 11
-322.5083422915758
 21
119.3855749863945
 31
0.0
  0
LINE
  5
199
330
1F
100
AcDbEntity
  8
0
  6
CONTINUOUS
 62
     3
100
AcDbLine
 10
-352.0083422915758
 20
139.3855749863945
 30
0.0
 11
-352.0083422915758
 21
119.6867105952443
 31
0.0
  0
LINE
  5
19A
330
1F
100
AcDbEntity
  8
0
  6
CONTINUOUS
 62
     3
100
AcDbLine
 10
-362.5083422915758
 20
139.3855749863945
 30
0.0
 11
-362.5083422915758
 21
120.7248875132095
 31
0.0
  0
LINE
  5
19B
330
1F
100
AcDbEntity
  8
0
  6
CONTINUOUS
 62
     3
100
AcDbLine
 10
-333.0083422915758
 20
119.3855749863945
 30
0.0
 11
-187.5083422915759
 21
119.3855749863945
 31
0.0
  0
LINE
  5
19C
330
1F
100
AcDbEntity
  8
0
  6
CONTINUOUS
 62
     3
100
AcDbLine
 10
-447.8648798201032
 20
349.3855749863946
 30
0.0
 11
-552.5083422915759
 21
349.3855749863946
 31
0.0
  0
LINE
  5
19D
330
1F
100
AcDbEntity
  8
0
  6
CONTINUOUS
 62
     3
100
AcDbLine
 10
-447.8648798201034
 20
149.3855749863947
 30
0.0
 11
-552.5083422915759
 21
149.3855749863947
 31
0.0
  0
LINE
  5
19E
330
1F
100
AcDbEntity
  8
0
  6
CONTINUOUS
 62
     3
100
AcDbLine
 10
-582.5083422915759
 20
179.3855749863947
 30
0.0
 11
-582.5083422915759
 21
239.8855749863945
 31
0.0
  0
ARC
  5
19F
330
1F
100
AcDbEntity
  8
0
  6
CONTINUOUS
 62
     3
100
AcDbCircle
 10
-552.5083422915759
 20
179.3855749863947
 30
0.0
 40
30.0
100
AcDbArc
 50
180.0
 51
269.9999999999999
  0
LINE
  5
1A0
330
1F
100
AcDbEntity
  8
0
  6
CONTINUOUS
 62
     3
100
AcDbLine
 10
-582.5083422915759
 20
258.8855749863945
 30
0.0
 11
-582.5083422915759
 21
319.3855749863946
 31
0.0
  0
ARC
  5
1A1
330
1F
100
AcDbEntity
  8
0
  6
CONTINUOUS
 62
     3
100
AcDbCircle
 10
-552.5083422915759
 20
319.3855749863946
 30
0.0
 40
30.0
100
AcDbArc
 50
89.99999999999999
 51
180.0
  0
ARC
  5
1A2
330
1F
100
AcDbEntity
  8
0
  6
CONTINUOUS
 62
     3
100
AcDbCircle
 10
-562.5083422915759
 20
249.3855749863945
 30
0.0
 40
9.5
100
AcDbArc
 50
269.9999999999999
 51
450.0
  0
ARC
  5
1A3
330
1F
100
AcDbEntity
  8
0
  6
CONTINUOUS
 62
     3
100
AcDbCircle
 10
-562.5083422915759
 20
249.3855749863945
 30
0.0
 40
20.0
100
AcDbArc
 50
269.9999999999999
 51
303.49305402483
  0
ARC
  5
1A4
330
1F
100
AcDbEntity
  8
0
  6
CONTINUOUS
 62
     3
100
AcDbCircle
 10
-562.5083422915759
 20
249.3855749863945
 30
0.0
 40
20.0
100
AcDbArc
 50
56.50694597516997
 51
89.99999999999999
  0
LINE
  5
1A5
330
1F
100
AcDbEntity
  8
0
  6
CONTINUOUS
 62
     3
100
AcDbLine
 10
-562.5083422915759
 20
269.3855749863945
 30
0.0
 11
-569.5083422915756
 21
269.3855749863942
 31
0.0
  0
LINE
  5
1A6
330
1F
100
AcDbEntity
  8
0
  6
CONTINUOUS
 62
     3
100
AcDbLine
 10
-562.5083422915759
 20
229.3855749863945
 30
0.0
 11
-569.5083422915759
 21
229.3855749863947
 31
0.0
  0
LINE
  5
1A7
330
1F
100
AcDbEntity
  8
0
  6
CONTINUOUS
 62
     3
100
AcDbLine
 10
-562.5083422915759
 20
258.8855749863945
 30
0.0
 11
-582.5083422915759
 21
258.8855749863945
 31
0.0
  0
LINE
  5
1A8
330
1F
100
AcDbEntity
  8
0
  6
CONTINUOUS
 62
     3
100
AcDbLine
 10
-562.5083422915759
 20
239.8855749863945
 30
0.0
 11
-582.5083422915759
 21
239.8855749863945
 31
0.0
  0
ARC
  5
1A9
330
1F
100
AcDbEntity
  8
0
  6
CONTINUOUS
 62
     3
100
AcDbCircle
 10
-342.5083422915758
 20
229.3855749863945
 30
0.0
 40
142.0
100
AcDbArc
 50
110.1464771661013
 51
113.7496091464613
  0
ARC
  5
1AA
330
1F
100
AcDbEntity
  8
0
  6
CONTINUOUS
 62
     3
100
AcDbCircle
 10
-392.105017485399
 20
364.5749599606535
 30
0.0
 40
2.0
100
AcDbArc
 50
290.1464771661013
 51
382.3813337282648
  0
ARC
  5
1AB
330
1F
100
AcDbEntity
  8
0
  6
CONTINUOUS
 62
     3
100
AcDbCircle
 10
-342.5083422915758
 20
269.3855749863945
 30
0.0
 40
142.0
100
AcDbArc
 50
246.2503908535386
 51
249.8535228338987
  0
ARC
  5
1AC
330
1F
100
AcDbEntity
  8
0
  6
CONTINUOUS
 62
     3
100
AcDbCircle
 10
-392.105017485399
 20
134.1961900121355
 30
0.0
 40
2.0
100
AcDbArc
 50
337.6186662717346
 51
429.8535228338987
  0
LINE
  5
1AD
330
1F
100
AcDbEntity
  8
0
  6
CONTINUOUS
 62
     3
100
AcDbLine
 10
-447.8648798201031
 20
341.3855749863946
 30
0.0
 11
-552.5083422915759
 21
341.3855749863946
 31
0.0
  0
LINE
  5
1AE
330
1F
100
AcDbEntity
  8
0
  6
CONTINUOUS
 62
     3
100
AcDbLine
 10
-447.8648798201035
 20
157.3855749863947
 30
0.0
 11
-552.5083422915759
 21
157.3855749863947
 31
0.0
  0
LINE
  5
1AF
330
1F
100
AcDbEntity
  8
0
  6
CONTINUOUS
 62
     3
100
AcDbLine
 10
-574.5083422915755
 20
274.3855749863942
 30
0.0
 11
-574.5083422915759
 21
289.3855749863945
 31
0.0
  0
ARC
  5
1B0
330
1F
100
AcDbEntity
  8
0
  6
CONTINUOUS
 62
     3
100
AcDbCircle
 10
-569.5083422915756
 20
274.3855749863942
 30
0.0
 40
5.0
100
AcDbArc
 50
180.0
 51
269.9999999999999
  0
LINE
  5
1B1
330
1F
100
AcDbEntity
  8
0
  6
CONTINUOUS
 62
     3
100
AcDbLine
 10
-574.5083422915759
 20
309.3855749863948
 30
0.0
 11
-574.5083422915759
 21
319.3855749863946
 31
0.0
  0
ARC
  5
1B2
330
1F
100
AcDbEntity
  8
0
  6
CONTINUOUS
 62
     3
100
AcDbCircle
 10
-552.5083422915759
 20
319.3855749863946
 30
0.0
 40
22.0
100
AcDbArc
 50
89.99999999999999
 51
180.0
  0
LINE
  5
1B3
330
1F
100
AcDbEntity
  8
0
  6
CONTINUOUS
 62
     3
100
AcDbLine
 10
-574.5083422915759
 20
179.3855749863947
 30
0.0
 11
-574.5083422915759
 21
189.3855749863945
 31
0.0
  0
LINE
  5
1B4
330
1F
100
AcDbEntity
  8
0
  6
CONTINUOUS
 62
     3
100
AcDbLine
 10
-574.5083422915759
 20
209.3855749863944
 30
0.0
 11
-574.5083422915759
 21
224.3855749863947
 31
0.0
  0
ARC
  5
1B5
330
1F
100
AcDbEntity
  8
0
  6
CONTINUOUS
 62
     3
100
AcDbCircle
 10
-569.5083422915759
 20
224.3855749863947
 30
0.0
 40
5.0
100
AcDbArc
 50
89.99999999999999
 51
180.0
  0
ARC
  5
1B6
330
1F
100
AcDbEntity
  8
0
  6
CONTINUOUS
 62
     3
100
AcDbCircle
 10
-552.5083422915759
 20
179.3855749863947
 30
0.0
 40
22.0
100
AcDbArc
 50
180.0
 51
269.9999999999999
  0
LINE
  5
1B7
330
1F
100
AcDbEntity
  8
0
  6
CONTINUOUS
 62
     3
100
AcDbLine
 10
-390.255677220072
 20
365.3364982610958
 30
0.0
 11
-391.7798818198746
 21
369.0379180549195
 31
0.0
  0
LINE
  5
1B8
330
1F
100
AcDbEntity
  8
0
  6
CONTINUOUS
 62
     3
100
AcDbLine
 10
-390.255677220072
 20
133.4346517116933
 30
0.0
 11
-391.7798818198747
 21
129.7332319178697
 31
0.0
  0
ARC
  5
1B9
330
1F
100
AcDbEntity
  8
0
  6
CONTINUOUS
 62
     3
100
AcDbCircle
 10
-402.5083422915758
 20
341.5810195593235
 30
0.0
 40
18.0
100
AcDbArc
 50
81.01599649943661
 51
155.0346011302136
  0
ARC
  5
1BA
330
1F
100
AcDbEntity
  8
0
  6
CONTINUOUS
 62
     3
100
AcDbCircle
 10
-402.5083422915758
 20
157.1901304134657
 30
0.0
 40
18.0
100
AcDbArc
 50
204.9653988697865
 51
278.9840035005628
  0
ARC
  5
1BB
330
1F
100
AcDbEntity
  8
0
  6
CONTINUOUS
 62
     3
100
AcDbCircle
 10
-187.5083422915759
 20
229.3855749863945
 30
0.0
 40
150.0
100
AcDbArc
 50
58.2116693829484
 51
89.99999999999999
  0
ARC
  5
1BC
330
1F
100
AcDbEntity
  8
0
  6
CONTINUOUS
 62
     3
100
AcDbCircle
 10
-187.5083422915759
 20
269.3855749863945
 30
0.0
 40
150.0
100
AcDbArc
 50
269.9999999999999
 51
301.7883306170517
  0
LINE
  5
1BD
330
1F
100
AcDbEntity
  8
0
  6
CONTINUOUS
 62
     3
100
AcDbLine
 10
47.4916577084241
 20
149.3855749863947
 30
0.0
 11
-82.15180476304835
 21
149.3855749863947
 31
0.0
  0
ARC
  5
1BE
330
1F
100
AcDbEntity
  8
0
  6
CONTINUOUS
 62
     3
100
AcDbCircle
 10
47.4916577084241
 20
179.3855749863947
 30
0.0
 40
30.0
100
AcDbArc
 50
269.9999999999999
 51
360.0
  0
LINE
  5
1BF
330
1F
100
AcDbEntity
  8
0
  6
CONTINUOUS
 62
     3
100
AcDbLine
 10
47.4916577084241
 20
349.3855749863947
 30
0.0
 11
-82.15180476304857
 21
349.3855749863946
 31
0.0
  0
ARC
  5
1C0
330
1F
100
AcDbEntity
  8
0
  6
CONTINUOUS
 62
     3
100
AcDbCircle
 10
47.4916577084241
 20
319.3855749863947
 30
0.0
 40
30.0
100
AcDbArc
 50
0.0
 51
89.99999999999999
  0
LINE
  5
1C1
330
1F
100
AcDbEntity
  8
0
  6
CONTINUOUS
 62
     3
100
AcDbLine
 10
47.4916577084241
 20
157.3855749863947
 30
0.0
 11
-82.15180476304835
 21
157.3855749863947
 31
0.0
  0
ARC
  5
1C2
330
1F
100
AcDbEntity
  8
0
  6
CONTINUOUS
 62
     3
100
AcDbCircle
 10
47.4916577084241
 20
179.3855749863947
 30
0.0
 40
22.0
100
AcDbArc
 50
269.9999999999999
 51
360.0
  0
LINE
  5
1C3
330
1F
100
AcDbEntity
  8
0
  6
CONTINUOUS
 62
     3
100
AcDbLine
 10
47.4916577084241
 20
341.3855749863947
 30
0.0
 11
-82.15180476304857
 21
341.3855749863946
 31
0.0
  0
ARC
  5
1C4
330
1F
100
AcDbEntity
  8
0
  6
CONTINUOUS
 62
     3
100
AcDbCircle
 10
47.4916577084241
 20
319.3855749863947
 30
0.0
 40
22.0
100
AcDbArc
 50
0.0
 51
89.99999999999999
  0
ARC
  5
1C5
330
1F
100
AcDbEntity
  8
0
  6
CONTINUOUS
 62
     3
100
AcDbCircle
 10
-242.5083422915758
 20
359.3855749863946
 30
0.0
 40
9.5
100
AcDbArc
 50
89.99999999999999
 51
269.9999999999999
  0
ARC
  5
1C6
330
1F
100
AcDbEntity
  8
0
  6
CONTINUOUS
 62
     3
100
AcDbCircle
 10
-172.5083422915759
 20
359.3855749863946
 30
0.0
 40
9.5
100
AcDbArc
 50
269.9999999999999
 51
450.0
  0
ARC
  5
1C7
330
1F
100
AcDbEntity
  8
0
  6
CONTINUOUS
 62
     3
100
AcDbCircle
 10
-242.5083422915758
 20
139.3855749863945
 30
0.0
 40
9.5
100
AcDbArc
 50
89.99999999999999
 51
269.9999999999999
  0
ARC
  5
1C8
330
1F
100
AcDbEntity
  8
0
  6
CONTINUOUS
 62
     3
100
AcDbCircle
 10
-172.5083422915759
 20
139.3855749863945
 30
0.0
 40
9.5
100
AcDbArc
 50
269.9999999999999
 51
450.0
  0
ARC
  5
1C9
330
1F
100
AcDbEntity
  8
0
  6
CONTINUOUS
 62
     3
100
AcDbCircle
 10
-242.5083422915758
 20
139.3855749863945
 30
0.0
 40
20.0
100
AcDbArc
 50
89.99999999999999
 51
269.9999999999999
  0
ARC
  5
1CA
330
1F
100
AcDbEntity
  8
0
  6
CONTINUOUS
 62
     3
100
AcDbCircle
 10
-242.5083422915758
 20
359.3855749863946
 30
0.0
 40
20.0
100
AcDbArc
 50
89.99999999999999
 51
269.9999999999999
  0
ARC
  5
1CB
330
1F
100
AcDbEntity
  8
0
  6
CONTINUOUS
 62
     3
100
AcDbCircle
 10
-172.5083422915759
 20
359.3855749863946
 30
0.0
 40
20.0
100
AcDbArc
 50
269.9999999999999
 51
425.3013105659196
  0
ARC
  5
1CC
330
1F
100
AcDbEntity
  8
0
  6
CONTINUOUS
 62
     3
100
AcDbCircle
 10
-172.5083422915759
 20
139.3855749863945
 30
0.0
 40
20.0
100
AcDbArc
 50
294.6986894340803
 51
450.0
  0
LINE
  5
1CD
330
1F
100
AcDbEntity
  8
0
  6
CONTINUOUS
 62
     3
100
AcDbLine
 10
-242.5083422915758
 20
159.3855749863945
 30
0.0
 11
-172.5083422915759
 21
159.3855749863945
 31
0.0
  0
LINE
  5
1CE
330
1F
100
AcDbEntity
  8
0
  6
CONTINUOUS
 62
     3
100
AcDbLine
 10
-242.5083422915758
 20
339.3855749863946
 30
0.0
 11
-172.5083422915759
 21
339.3855749863946
 31
0.0
  0
LINE
  5
1CF
330
1F
100
AcDbEntity
  8
0
  6
CONTINUOUS
 62
     3
100
AcDbLine
 10
-242.5083422915758
 20
368.8855749863946
 30
0.0
 11
-172.5083422915759
 21
368.8855749863946
 31
0.0
  0
LINE
  5
1D0
330
1F
100
AcDbEntity
  8
0
  6
CONTINUOUS
 62
     3
100
AcDbLine
 10
-172.5083422915759
 20
349.8855749863946
 30
0.0
 11
-242.5083422915758
 21
349.8855749863946
 31
0.0
  0
LINE
  5
1D1
330
1F
100
AcDbEntity
  8
0
  6
CONTINUOUS
 62
     3
100
AcDbLine
 10
-242.5083422915758
 20
148.8855749863945
 30
0.0
 11
-172.5083422915759
 21
148.8855749863945
 31
0.0
  0
LINE
  5
1D2
330
1F
100
AcDbEntity
  8
0
  6
CONTINUOUS
 62
     3
100
AcDbLine
 10
-172.5083422915759
 20
129.8855749863945
 30
0.0
 11
-242.5083422915758
 21
129.8855749863945
 31
0.0
  0
ARC
  5
1D3
330
1F
100
AcDbEntity
  8
0
  6
CONTINUOUS
 62
     3
100
AcDbCircle
 10
-187.5083422915759
 20
229.3855749863945
 30
0.0
 40
142.0
100
AcDbArc
 50
58.21166938294842
 51
67.9103775288694
  0
ARC
  5
1D4
330
1F
100
AcDbEntity
  8
0
  6
CONTINUOUS
 62
     3
100
AcDbCircle
 10
-187.5083422915759
 20
269.3855749863945
 30
0.0
 40
142.0
100
AcDbArc
 50
292.0896224711306
 51
301.7883306170517
  0
ARC
  5
1D5
330
1F
100
AcDbEntity
  8
0
  6
CONTINUOUS
 62
     3
100
AcDbCircle
 10
-139.7491741312859
 20
347.0633632755919
 30
0.0
 40
15.0
100
AcDbArc
 50
67.91037752886935
 51
159.3864388297658
  0
ARC
  5
1D6
330
1F
100
AcDbEntity
  8
0
  6
CONTINUOUS
 62
     3
100
AcDbCircle
 10
-139.7491741312859
 20
151.7077866971973
 30
0.0
 40
15.0
100
AcDbArc
 50
200.6135611702342
 51
292.0896224711301
  0
LINE
  5
1D7
330
1F
100
AcDbEntity
  8
0
  6
CONTINUOUS
 62
     3
100
AcDbLine
 10
-292.5083422915759
 20
121.3855749863945
 30
0.0
 11
-292.5083422915758
 21
125.3855749863945
 31
0.0
  0
ARC
  5
1D8
330
1F
100
AcDbEntity
  8
0
  6
CONTINUOUS
 62
     3
100
AcDbCircle
 10
-290.5083422915759
 20
121.3855749863945
 30
0.0
 40
2.0
100
AcDbArc
 50
180.0
 51
269.9999999999999
  0
LINE
  5
1D9
330
1F
100
AcDbEntity
  8
0
  6
CONTINUOUS
 62
     3
100
AcDbLine
 10
-292.5083422915759
 20
377.3855749863946
 30
0.0
 11
-292.5083422915758
 21
373.3855749863946
 31
0.0
  0
ARC
  5
1DA
330
1F
100
AcDbEntity
  8
0
  6
CONTINUOUS
 62
     3
100
AcDbCircle
 10
-290.5083422915759
 20
377.3855749863946
 30
0.0
 40
2.0
100
AcDbArc
 50
89.99999999999999
 51
180.0
  0
LINE
  5
1DB
330
1F
100
AcDbEntity
  8
0
  6
CONTINUOUS
 62
     3
100
AcDbLine
 10
-290.5083422915758
 20
371.3855749863946
 30
0.0
 11
-277.3795338399013
 21
371.3855749863946
 31
0.0
  0
ARC
  5
1DC
330
1F
100
AcDbEntity
  8
0
  6
CONTINUOUS
 62
     3
100
AcDbCircle
 10
-290.5083422915758
 20
373.3855749863946
 30
0.0
 40
2.0
100
AcDbArc
 50
180.0
 51
269.9999999999999
  0
LINE
  5
1DD
330
1F
100
AcDbEntity
  8
0
  6
CONTINUOUS
 62
     3
100
AcDbLine
 10
-290.5083422915758
 20
127.3855749863945
 30
0.0
 11
-277.3795338399013
 21
127.3855749863945
 31
0.0
  0
ARC
  5
1DE
330
1F
100
AcDbEntity
  8
0
  6
CONTINUOUS
 62
     3
100
AcDbCircle
 10
-290.5083422915758
 20
125.3855749863945
 30
0.0
 40
2.0
100
AcDbArc
 50
89.99999999999999
 51
180.0
  0
ARC
  5
1DF
330
1F
100
AcDbEntity
  8
0
  6
CONTINUOUS
 62
     3
100
AcDbCircle
 10
-277.3795338399013
 20
356.3855749863946
 30
0.0
 40
15.0
100
AcDbArc
 50
4.917100335528838
 51
89.99999999999999
  0
ARC
  5
1E0
330
1F
100
AcDbEntity
  8
0
  6
CONTINUOUS
 62
     3
100
AcDbCircle
 10
-277.3795338399013
 20
142.3855749863945
 30
0.0
 40
15.0
100
AcDbArc
 50
269.9999999999999
 51
355.0828996644711
  0
ARC
  5
1E1
330
1F
100
AcDbEntity
  8
0
  6
CONTINUOUS
 62
     3
100
AcDbCircle
 10
-82.15180476304857
 20
399.3855749863946
 30
0.0
 40
50.0
100
AcDbArc
 50
238.2116693829484
 51
269.9999999999999
  0
ARC
  5
1E2
330
1F
100
AcDbEntity
  8
0
  6
CONTINUOUS
 62
     3
100
AcDbCircle
 10
-82.15180476304857
 20
399.3855749863946
 30
0.0
 40
58.0
100
AcDbArc
 50
238.2116693829484
 51
269.9999999999999
  0
ARC
  5
1E3
330
1F
100
AcDbEntity
  8
0
  6
CONTINUOUS
 62
     3
100
AcDbCircle
 10
-82.15180476304835
 20
99.38557498639463
 30
0.0
 40
58.0
100
AcDbArc
 50
89.99999999999999
 51
121.7883306170516
  0
ARC
  5
1E4
330
1F
100
AcDbEntity
  8
0
  6
CONTINUOUS
 62
     3
100
AcDbCircle
 10
-82.15180476304835
 20
99.38557498639463
 30
0.0
 40
50.0
100
AcDbArc
 50
89.99999999999999
 51
121.7883306170516
  0
ARC
  5
1E5
330
1F
100
AcDbEntity
  8
0
  6
CONTINUOUS
 62
     3
100
AcDbCircle
 10
-447.8648798201032
 20
399.3855749863946
 30
0.0
 40
50.0
100
AcDbArc
 50
269.9999999999999
 51
301.7883306170516
  0
ARC
  5
1E6
330
1F
100
AcDbEntity
  8
0
  6
CONTINUOUS
 62
     3
100
AcDbCircle
 10
-447.8648798201034
 20
99.38557498639463
 30
0.0
 40
50.0
100
AcDbArc
 50
58.21166938294847
 51
89.99999999999999
  0
ARC
  5
1E7
330
1F
100
AcDbEntity
  8
0
  6
CONTINUOUS
 62
     3
100
AcDbCircle
 10
-447.8648798201035
 20
99.38557498639469
 30
0.0
 40
58.0
100
AcDbArc
 50
59.95618093194428
 51
89.99999999999999
  0
ARC
  5
1E8
330
1F
100
AcDbEntity
  8
0
  6
CONTINUOUS
 62
     3
100
AcDbCircle
 10
-447.8648798201031
 20
399.3855749863946
 30
0.0
 40
58.0
100
AcDbArc
 50
269.9999999999999
 51
300.0438190680553
  0
LINE
  5
1E9
330
1F
100
AcDbEntity
  8
0
  6
CONTINUOUS
 62
     3
100
AcDbLine
 10
77.4916577084241
 20
-217.3158523106616
 30
0.0
 11
77.4916577084241
 21
-193.315852310662
 31
0.0
  0
LINE
  5
1EA
330
1F
100
AcDbEntity
  8
0
  6
CONTINUOUS
 62
     3
100
AcDbLine
 10
-582.5083422915761
 20
-193.8158523106616
 30
0.0
 11
-582.5083422915759
 21
-217.3158523106616
 31
0.0
  0
ARC
  5
1EB
330
1F
100
AcDbEntity
  8
0
  6
CONTINUOUS
 62
     3
100
AcDbCircle
 10
-579.5083422915761
 20
-193.8158523106616
 30
0.0
 40
3.0
100
AcDbArc
 50
89.99999999999999
 51
180.0
  0
LINE
  5
1EC
330
1F
100
AcDbEntity
  8
0
  6
CONTINUOUS
 62
     3
100
AcDbLine
 10
-582.5083422915759
 20
-217.3158523106616
 30
0.0
 11
-351.5083422915758
 21
-217.3158523106616
 31
0.0
  0
LINE
  5
1ED
330
1F
100
AcDbEntity
  8
0
  6
CONTINUOUS
 62
     3
100
AcDbLine
 10
-333.508342291576
 20
-217.3158523106616
 30
0.0
 11
77.4916577084241
 21
-217.3158523106616
 31
0.0
  0
LINE
  5
1EE
330
1F
100
AcDbEntity
  8
0
  6
CONTINUOUS
 62
     3
100
AcDbLine
 10
-362.5083422915758
 20
-187.3158523106616
 30
0.0
 11
-366.9368344373302
 21
-195.2871381730188
 31
0.0
  0
LINE
  5
1EF
330
1F
100
AcDbEntity
  8
0
  6
CONTINUOUS
 62
     3
100
AcDbLine
 10
-322.5083422915758
 20
-187.3158523106616
 30
0.0
 11
-318.0798501458218
 21
-195.2871381730189
 31
0.0
  0
LINE
  5
1F0
330
1F
100
AcDbEntity
  8
0
  6
CONTINUOUS
 62
     3
100
AcDbLine
 10
-362.5083422915758
 20
-187.3158523106616
 30
0.0
 11
-322.5083422915758
 21
-187.3158523106616
 31
0.0
  0
LINE
  5
1F1
330
1F
100
AcDbEntity
  8
0
  6
CONTINUOUS
 62
     3
100
AcDbLine
 10
-316.3315355935787
 20
-196.3158523106616
 30
0.0
 11
-294.5083422915757
 21
-196.3158523106616
 31
0.0
  0
ARC
  5
1F2
330
1F
100
AcDbEntity
  8
0
  6
CONTINUOUS
 62
     3
100
AcDbCircle
 10
-316.3315355935787
 20
-194.3158523106616
 30
0.0
 40
2.0
100
AcDbArc
 50
209.0546040990766
 51
270.0000000000001
  0
LINE
  5
1F3
330
1F
100
AcDbEntity
  8
0
  6
CONTINUOUS
 62
     3
100
AcDbLine
 10
-368.6851489895732
 20
-196.3158523106615
 30
0.0
 11
-388.1050174854
 21
-196.3158523106615
 31
0.0
  0
ARC
  5
1F4
330
1F
100
AcDbEntity
  8
0
  6
CONTINUOUS
 62
     3
100
AcDbCircle
 10
-368.6851489895732
 20
-194.3158523106615
 30
0.0
 40
2.0
100
AcDbArc
 50
269.9999999999996
 51
330.945395900922
  0
LINE
  5
1F5
330
1F
100
AcDbEntity
  8
0
  6
CONTINUOUS
 62
     3
100
AcDbLine
 10
-390.1050174854
 20
-194.3158523106615
 30
0.0
 11
-390.105017485399
 21
-192.8158523106616
 31
0.0
  0
ARC
  5
1F6
330
1F
100
AcDbEntity
  8
0
  6
CONTINUOUS
 62
     3
100
AcDbCircle
 10
-388.1050174854
 20
-194.3158523106615
 30
0.0
 40
2.0
100
AcDbArc
 50
180.0
 51
269.9999999999999
  0
ARC
  5
1F7
330
1F
100
AcDbEntity
  8
0
  6
CONTINUOUS
 62
     3
100
AcDbCircle
 10
-392.105017485399
 20
-192.8158523106616
 30
0.0
 40
2.0
100
AcDbArc
 50
0.0
 51
90.0
  0
LINE
  5
1F8
330
1F
100
AcDbEntity
  8
0
  6
CONTINUOUS
 62
     3
100
AcDbLine
 10
-292.5083422915757
 20
-194.3158523106616
 30
0.0
 11
-292.5083422915755
 21
-192.3158523106613
 31
0.0
  0
ARC
  5
1F9
330
1F
100
AcDbEntity
  8
0
  6
CONTINUOUS
 62
     3
100
AcDbCircle
 10
-294.5083422915757
 20
-194.3158523106616
 30
0.0
 40
2.0
100
AcDbArc
 50
269.9999999999999
 51
360.0
  0
LINE
  5
1FA
330
1F
100
AcDbEntity
  8
0
  6
CONTINUOUS
 62
     3
100
AcDbLine
 10
-351.5083422915758
 20
-213.3158523106616
 30
0.0
 11
-333.5083422915758
 21
-213.3158523106616
 31
0.0
  0
LINE
  5
1FB
330
1F
100
AcDbEntity
  8
0
  6
CONTINUOUS
 62
     3
100
AcDbLine
 10
-333.5083422915758
 20
-213.3158523106616
 30
0.0
 11
-333.5083422915758
 21
-225.3158523106616
 31
0.0
  0
LINE
  5
1FC
330
1F
100
AcDbEntity
  8
0
  6
CONTINUOUS
 62
     3
100
AcDbLine
 10
-351.5083422915758
 20
-213.3158523106616
 30
0.0
 11
-351.5083422915758
 21
-225.3158523106616
 31
0.0
  0
LINE
  5
1FD
330
1F
100
AcDbEntity
  8
0
  6
CONTINUOUS
 62
     3
100
AcDbLine
 10
-351.5083422915758
 20
-225.3158523106616
 30
0.0
 11
-333.5083422915758
 21
-225.3158523106616
 31
0.0
  0
LINE
  5
1FE
330
1F
100
AcDbEntity
  8
0
  6
CONTINUOUS
 62
     3
100
AcDbLine
 10
52.49165770842413
 20
-190.3158523106616
 30
0.0
 11
35.23019048018111
 21
-188.8056696123661
 31
0.0
  0
LINE
  5
1FF
330
1F
100
AcDbEntity
  8
0
  6
CONTINUOUS
 62
     3
100
AcDbLine
 10
32.49165770842413
 20
-185.8170855180909
 30
0.0
 11
32.49165770842407
 21
-171.8146191032325
 31
0.0
  0
ARC
  5
200
330
1F
100
AcDbEntity
  8
0
  6
CONTINUOUS
 62
     3
100
AcDbCircle
 10
35.49165770842413
 20
-185.8170855180909
 30
0.0
 40
3.0
100
AcDbArc
 50
180.0
 51
264.9999999999999
  0
LINE
  5
201
330
1F
100
AcDbEntity
  8
0
  6
CONTINUOUS
 62
     3
100
AcDbLine
 10
35.23019048018111
 20
-168.8260350089572
 30
0.0
 11
49.75312493666715
 21
-167.5554428828847
 31
0.0
  0
ARC
  5
202
330
1F
100
AcDbEntity
  8
0
  6
CONTINUOUS
 62
     3
100
AcDbCircle
 10
35.49165770842407
 20
-171.8146191032325
 30
0.0
 40
3.0
100
AcDbArc
 50
94.99999999999953
 51
180.0
  0
LINE
  5
203
330
1F
100
AcDbEntity
  8
0
  6
CONTINUOUS
 62
     3
100
AcDbLine
 10
52.49165770842419
 20
-164.5668587886095
 30
0.0
 11
52.49165770842419
 21
-127.3158523106617
 31
0.0
  0
ARC
  5
204
330
1F
100
AcDbEntity
  8
0
  6
CONTINUOUS
 62
     3
100
AcDbCircle
 10
49.49165770842419
 20
-164.5668587886095
 30
0.0
 40
3.0
100
AcDbArc
 50
274.9999999999998
 51
360.0
  0
LINE
  5
205
330
1F
100
AcDbEntity
  8
0
  6
CONTINUOUS
 62
     3
100
AcDbLine
 10
-457.508342291576
 20
-72.31585231066163
 30
0.0
 11
-477.508342291576
 21
-72.31585231066163
 31
0.0
  0
LINE
  5
206
330
1F
100
AcDbEntity
  8
0
  6
CONTINUOUS
 62
     3
100
AcDbLine
 10
-457.508342291576
 20
-127.0158523106616
 30
0.0
 11
-457.5083422915759
 21
-72.31585231066156
 31
0.0
  0
LINE
  5
207
330
1F
100
AcDbEntity
  8
0
  6
CONTINUOUS
 62
     3
100
AcDbLine
 10
-457.5083422915759
 20
-72.31585231066156
 30
0.0
 11
-456.5083422915759
 21
-71.31585231066156
 31
0.0
  0
LINE
  5
208
330
1F
100
AcDbEntity
  8
0
  6
CONTINUOUS
 62
     3
100
AcDbLine
 10
-449.5083422915759
 20
-127.0158523106616
 30
0.0
 11
-449.5083422915759
 21
-140.3158523106616
 31
0.0
  0
LINE
  5
209
330
1F
100
AcDbEntity
  8
0
  6
CONTINUOUS
 62
     3
100
AcDbLine
 10
-439.5083422915759
 20
-127.0158523106616
 30
0.0
 11
-457.508342291576
 21
-127.0158523106616
 31
0.0
  0
LINE
  5
20A
330
1F
100
AcDbEntity
  8
0
  6
CONTINUOUS
 62
     3
100
AcDbLine
 10
-454.5083422915758
 20
-145.3158523106616
 30
0.0
 11
-477.1541619820069
 21
-145.3158523106617
 31
0.0
  0
ARC
  5
20B
330
1F
100
AcDbEntity
  8
0
  6
CONTINUOUS
 62
     3
100
AcDbCircle
 10
-454.5083422915759
 20
-140.3158523106616
 30
0.0
 40
5.0
100
AcDbArc
 50
270.0000000000001
 51
360.0
  0
LINE
  5
20C
330
1F
100
AcDbEntity
  8
0
  6
CONTINUOUS
 62
     3
100
AcDbLine
 10
-477.508342291576
 20
-72.31585231066163
 30
0.0
 11
-482.1424748078741
 21
-139.974187048616
 31
0.0
  0
ARC
  5
20D
330
1F
100
AcDbEntity
  8
0
  6
CONTINUOUS
 62
     3
100
AcDbCircle
 10
-477.1541619820069
 20
-140.3158523106617
 30
0.0
 40
5.0
100
AcDbArc
 50
176.0817511359327
 51
269.9999999999999
  0
LINE
  5
20E
330
1F
100
AcDbEntity
  8
0
  6
CONTINUOUS
 62
     3
100
AcDbLine
 10
-480.5153710252621
 20
-75.31585231066183
 30
0.0
 11
-499.8288503672648
 21
-75.31585231066165
 31
0.0
  0
ARC
  5
20F
330
1F
100
AcDbEntity
  8
0
  6
CONTINUOUS
 62
     3
100
AcDbCircle
 10
-480.5153710252621
 20
-72.31585231066185
 30
0.0
 40
3.0
100
AcDbArc
 50
269.9999999999997
 51
356.0817511359334
  0
LINE
  5
210
330
1F
100
AcDbEntity
  8
0
  6
CONTINUOUS
 62
     3
100
AcDbLine
 10
-504.8288503672647
 20
-76.65559827281734
 30
0.0
 11
-544.7767339167951
 21
-99.71951959369451
 31
0.0
  0
ARC
  5
211
330
1F
100
AcDbEntity
  8
0
  6
CONTINUOUS
 62
     3
100
AcDbCircle
 10
-499.8288503672648
 20
-85.31585231066168
 30
0.0
 40
10.0
100
AcDbArc
 50
89.99999999999946
 51
120.0
  0
LINE
  5
212
330
1F
100
AcDbEntity
  8
0
  6
CONTINUOUS
 62
     3
100
AcDbLine
 10
-549.7386808977126
 20
-107.5082162040623
 30
0.0
 11
-557.0271546421832
 21
-190.8158523106616
 31
0.0
  0
ARC
  5
213
330
1F
100
AcDbEntity
  8
0
  6
CONTINUOUS
 62
     3
100
AcDbCircle
 10
-539.7767339167953
 20
-108.3797736315389
 30
0.0
 40
10.0
100
AcDbArc
 50
120.0
 51
175.0
  0
ARC
  5
214
330
1F
100
AcDbEntity
  8
0
  6
CONTINUOUS
 62
     3
100
AcDbCircle
 10
-578.5986661730522
 20
-164.3158523106616
 30
0.0
 40
3.0
100
AcDbArc
 50
165.0
 51
330.0
  0
LINE
  5
215
330
1F
100
AcDbEntity
  8
0
  6
CONTINUOUS
 62
     3
100
AcDbLine
 10
-558.9404062747294
 20
-150.3158523106623
 30
0.0
 11
-564.1649094433112
 21
-150.3158523106617
 31
0.0
  0
ARC
  5
216
330
1F
100
AcDbEntity
  8
0
  6
CONTINUOUS
 62
     3
100
AcDbCircle
 10
-558.9404062747296
 20
-155.3158523106623
 30
0.0
 40
5.0
100
AcDbArc
 50
355.0000000000001
 51
449.9999999999982
  0
LINE
  5
217
330
1F
100
AcDbEntity
  8
0
  6
CONTINUOUS
 62
     3
100
AcDbLine
 10
-568.4950364622333
 20
-152.8158523106616
 30
0.0
 11
-576.0005899616988
 21
-165.8158523106616
 31
0.0
  0
ARC
  5
218
330
1F
100
AcDbEntity
  8
0
  6
CONTINUOUS
 62
     3
100
AcDbCircle
 10
-564.1649094433112
 20
-155.3158523106617
 30
0.0
 40
5.0
100
AcDbArc
 50
89.99999999999999
 51
149.9999999999998
  0
LINE
  5
219
330
1F
100
AcDbEntity
  8
0
  6
CONTINUOUS
 62
     3
100
AcDbLine
 10
-553.7257459590417
 20
-128.6172699370408
 30
0.0
 11
-571.9217692705786
 21
-139.1227488941373
 31
0.0
  0
ARC
  5
21A
330
1F
100
AcDbEntity
  8
0
  6
CONTINUOUS
 62
     3
100
AcDbCircle
 10
-556.2257459590418
 20
-124.2871429181186
 30
0.0
 40
5.0
100
AcDbArc
 50
299.9999999999998
 51
354.9999999999998
  0
LINE
  5
21B
330
1F
100
AcDbEntity
  8
0
  6
CONTINUOUS
 62
     3
100
AcDbLine
 10
-576.5810275334691
 20
-145.1948124809564
 30
0.0
 11
-581.4964436519194
 21
-163.5393951753541
 31
0.0
  0
ARC
  5
21C
330
1F
100
AcDbEntity
  8
0
  6
CONTINUOUS
 62
     3
100
AcDbCircle
 10
-566.9217692705786
 20
-147.7830029319817
 30
0.0
 40
10.0
100
AcDbArc
 50
119.9999999999999
 51
164.9999999999996
  0
CIRCLE
  5
21D
330
1F
100
AcDbEntity
  8
0
  6
CONTINUOUS
 62
     3
100
AcDbCircle
 10
-57.50834229157593
 20
-175.3158523106616
 30
0.0
 40
10.0
  0
CIRCLE
  5
21E
330
1F
100
AcDbEntity
  8
0
  6
CONTINUOUS
 62
     3
100
AcDbCircle
 10
-157.5083422915759
 20
-175.3158523106616
 30
0.0
 40
10.0
  0
CIRCLE
  5
21F
330
1F
100
AcDbEntity
  8
0
  6
CONTINUOUS
 62
     3
100
AcDbCircle
 10
-257.5083422915759
 20
-175.3158523106616
 30
0.0
 40
10.0
  0
ARC
  5
220
330
1F
100
AcDbEntity
  8
0
  6
CONTINUOUS
 62
     3
100
AcDbCircle
 10
-257.5083422915759
 20
-175.3158523106616
 30
0.0
 40
13.5
100
AcDbArc
 50
125.4309446873358
 51
414.5690553126642
  0
ARC
  5
221
330
1F
100
AcDbEntity
  8
0
  6
CONTINUOUS
 62
     3
100
AcDbCircle
 10
-157.5083422915759
 20
-175.3158523106616
 30
0.0
 40
13.5
100
AcDbArc
 50
125.4309446873358
 51
414.5690553126642
  0
ARC
  5
222
330
1F
100
AcDbEntity
  8
0
  6
CONTINUOUS
 62
     3
100
AcDbCircle
 10
-57.50834229157593
 20
-175.3158523106616
 30
0.0
 40
13.5
100
AcDbArc
 50
125.4309446873358
 51
414.5690553126642
  0
LINE
  5
223
330
1F
100
AcDbEntity
  8
0
  6
CONTINUOUS
 62
     3
100
AcDbLine
 10
-415.5083422915759
 20
-127.3158523106616
 30
0.0
 11
-415.5083422915759
 21
-131.3158523106616
 31
0.0
  0
LINE
  5
224
330
1F
100
AcDbEntity
  8
0
  6
CONTINUOUS
 62
     3
100
AcDbLine
 10
-415.5083422915759
 20
-131.3158523106616
 30
0.0
 11
-387.7955293704739
 21
-147.3158523106616
 31
0.0
  0
LINE
  5
225
330
1F
100
AcDbEntity
  8
0
  6
CONTINUOUS
 62
     3
100
AcDbLine
 10
-444.5083422915759
 20
-147.3158523106616
 30
0.0
 11
52.49165770842419
 21
-147.3158523106616
 31
0.0
  0
LINE
  5
226
330
1F
100
AcDbEntity
  8
0
  6
CONTINUOUS
 62
     3
100
AcDbLine
 10
-49.68210437032667
 20
-164.3158523106616
 30
0.0
 11
52.49165770842416
 21
-164.3158523106616
 31
0.0
  0
LINE
  5
227
330
1F
100
AcDbEntity
  8
0
  6
CONTINUOUS
 62
     3
100
AcDbLine
 10
-65.33458021282519
 20
-164.3158523106616
 30
0.0
 11
-149.6821043703267
 21
-164.3158523106616
 31
0.0
  0
LINE
  5
228
330
1F
100
AcDbEntity
  8
0
  6
CONTINUOUS
 62
     3
100
AcDbLine
 10
-165.3345802128252
 20
-164.3158523106616
 30
0.0
 11
-249.6821043703267
 21
-164.3158523106616
 31
0.0
  0
LINE
  5
229
330
1F
100
AcDbEntity
  8
0
  6
CONTINUOUS
 62
     3
100
AcDbLine
 10
-439.5083422915758
 20
217.3855749863945
 30
0.0
 11
-415.5083422915758
 21
217.3855749863945
 31
0.0
  0
LINE
  5
22A
330
1F
100
AcDbEntity
  8
0
  6
CONTINUOUS
 62
     3
100
AcDbLine
 10
-439.5083422915759
 20
281.3855749863946
 30
0.0
 11
-415.5083422915758
 21
281.3855749863945
 31
0.0
  0
LINE
  5
22B
330
1F
100
AcDbEntity
  8
0
  6
CONTINUOUS
 62
     3
100
AcDbLine
 10
-457.5083422915758
 20
336.8855749863945
 30
0.0
 11
-482.1541619820054
 21
336.8855749863945
 31
0.0
  0
LINE
  5
22C
330
1F
100
AcDbEntity
  8
0
  6
CONTINUOUS
 62
     3
100
AcDbLine
 10
-477.5083422915758
 20
336.8855749863945
 30
0.0
 11
-477.5083422915759
 21
161.8855749863945
 31
0.0
  0
LINE
  5
22D
330
1F
100
AcDbEntity
  8
0
  6
CONTINUOUS
 62
     3
100
AcDbLine
 10
-482.1541619820069
 20
161.8855749863945
 30
0.0
 11
-457.5083422915759
 21
161.8855749863945
 31
0.0
  0
LINE
  5
22E
330
1F
100
AcDbEntity
  8
0
  6
CONTINUOUS
 62
     3
100
AcDbLine
 10
-457.5083422915758
 20
337.8855749863943
 30
0.0
 11
-457.5083422915759
 21
160.8855749863945
 31
0.0
  0
LINE
  5
22F
330
1F
100
AcDbEntity
  8
0
  6
CONTINUOUS
 62
     3
100
AcDbLine
 10
-457.5083422915759
 20
160.8855749863945
 30
0.0
 11
-456.508342291576
 21
159.8855749863945
 31
0.0
  0
LINE
  5
230
330
1F
100
AcDbEntity
  8
0
  6
CONTINUOUS
 62
     3
100
AcDbLine
 10
-457.5083422915758
 20
337.8855749863943
 30
0.0
 11
-456.5083422915758
 21
338.8855749863943
 31
0.0
  0
LINE
  5
231
330
1F
100
AcDbEntity
  8
0
  6
CONTINUOUS
 62
     3
100
AcDbLine
 10
-415.5083422915758
 20
281.3855749863945
 30
0.0
 11
-415.5083422915758
 21
279.4855749863945
 31
0.0
  0
LINE
  5
232
330
1F
100
AcDbEntity
  8
0
  6
CONTINUOUS
 62
     3
100
AcDbLine
 10
-415.5083422915758
 20
217.3855749863945
 30
0.0
 11
-415.5083422915758
 21
219.2855749863945
 31
0.0
  0
LINE
  5
233
330
1F
100
AcDbEntity
  8
0
  6
CONTINUOUS
 62
     3
100
AcDbLine
 10
-189.508342291576
 20
279.4855749863945
 30
0.0
 11
-415.5083422915758
 21
279.4855749863945
 31
0.0
  0
LINE
  5
234
330
1F
100
AcDbEntity
  8
0
  6
CONTINUOUS
 62
     3
100
AcDbLine
 10
-189.508342291576
 20
219.2855749863945
 30
0.0
 11
-415.5083422915758
 21
219.2855749863945
 31
0.0
  0
LINE
  5
235
330
1F
100
AcDbEntity
  8
0
  6
CONTINUOUS
 62
     3
100
AcDbLine
 10
-189.508342291576
 20
316.8855749863945
 30
0.0
 11
-415.5083422915758
 21
316.8855749863945
 31
0.0
  0
LINE
  5
236
330
1F
100
AcDbEntity
  8
0
  6
CONTINUOUS
 62
     3
100
AcDbLine
 10
-189.508342291576
 20
181.8855749863945
 30
0.0
 11
-415.5083422915758
 21
181.8855749863945
 31
0.0
  0
LINE
  5
237
330
1F
100
AcDbEntity
  8
0
  6
CONTINUOUS
 62
     3
100
AcDbLine
 10
-418.5083422915749
 20
313.8855749863945
 30
0.0
 11
-439.5083422915759
 21
313.8855749863947
 31
0.0
  0
LINE
  5
238
330
1F
100
AcDbEntity
  8
0
  6
CONTINUOUS
 62
     3
100
AcDbLine
 10
-418.5083422915762
 20
184.8855749863945
 30
0.0
 11
-439.5083422915759
 21
184.8855749863945
 31
0.0
  0
ARC
  5
239
330
1F
100
AcDbEntity
  8
0
  6
CONTINUOUS
 62
     3
100
AcDbCircle
 10
-418.5083422915749
 20
316.8855749863945
 30
0.0
 40
3.0
100
AcDbArc
 50
269.9999999999999
 51
360.0
  0
ARC
  5
23A
330
1F
100
AcDbEntity
  8
0
  6
CONTINUOUS
 62
     3
100
AcDbCircle
 10
-418.5083422915762
 20
181.8855749863945
 30
0.0
 40
3.0
100
AcDbArc
 50
0.0
 51
90.00000000000016
  0
LINE
  5
23B
330
1F
100
AcDbEntity
  8
0
  6
CONTINUOUS
 62
     3
100
AcDbLine
 10
-444.5083422915759
 20
-147.3158523106616
 30
0.0
 11
-444.5083422915759
 21
-164.3158523106616
 31
0.0
  0
LINE
  5
23C
330
1F
100
AcDbEntity
  8
0
  6
CONTINUOUS
 62
     3
100
AcDbLine
 10
-444.5083422915759
 20
-164.3158523106616
 30
0.0
 11
-265.3345802128252
 21
-164.3158523106616
 31
0.0
  0
LINE
  5
23D
330
1F
100
AcDbEntity
  8
0
  6
CONTINUOUS
 62
     3
100
AcDbLine
 10
-557.5083422915757
 20
323.8855749863946
 30
0.0
 11
-557.5083422915757
 21
309.3855749863948
 31
0.0
  0
LINE
  5
23E
330
1F
100
AcDbEntity
  8
0
  6
CONTINUOUS
 62
     3
100
AcDbLine
 10
-557.5083422915757
 20
289.3855749863945
 30
0.0
 11
-557.5083422915758
 21
284.385574986396
 31
0.0
  0
LINE
  5
23F
330
1F
100
AcDbEntity
  8
0
  6
CONTINUOUS
 62
     3
100
AcDbLine
 10
-557.5083422915758
 20
174.8855749863945
 30
0.0
 11
-557.5083422915758
 21
189.3855749863945
 31
0.0
  0
LINE
  5
240
330
1F
100
AcDbEntity
  8
0
  6
CONTINUOUS
 62
     3
100
AcDbLine
 10
-557.5083422915758
 20
209.3855749863944
 30
0.0
 11
-557.5083422915758
 21
214.3855749863949
 31
0.0
  0
LINE
  5
241
330
1F
100
AcDbEntity
  8
0
  6
CONTINUOUS
 62
     3
100
AcDbLine
 10
-549.2849768183048
 20
323.8855749863947
 30
0.0
 11
-549.2849768183048
 21
174.8855749863945
 31
0.0
  0
LINE
  5
242
330
1F
100
AcDbEntity
  8
0
  6
CONTINUOUS
 62
     3
100
AcDbLine
 10
-502.5083422915757
 20
330.8855749863945
 30
0.0
 11
-502.5083422915757
 21
167.8855749863945
 31
0.0
  0
LINE
  5
243
330
1F
100
AcDbEntity
  8
0
  6
CONTINUOUS
 62
     3
100
AcDbLine
 10
-547.5083422915757
 20
333.8855749863946
 30
0.0
 11
-480.5083422915744
 21
333.8855749863945
 31
0.0
  0
ARC
  5
244
330
1F
100
AcDbEntity
  8
0
  6
CONTINUOUS
 62
     3
100
AcDbCircle
 10
-547.5083422915757
 20
323.8855749863946
 30
0.0
 40
10.0
100
AcDbArc
 50
89.99999999999994
 51
180.0
  0
ARC
  5
245
330
1F
100
AcDbEntity
  8
0
  6
CONTINUOUS
 62
     3
100
AcDbCircle
 10
-480.5083422915744
 20
336.8855749863945
 30
0.0
 40
3.0
100
AcDbArc
 50
269.9999999999999
 51
360.0
  0
LINE
  5
246
330
1F
100
AcDbEntity
  8
0
  6
CONTINUOUS
 62
     3
100
AcDbLine
 10
-547.5083422915758
 20
164.8855749863945
 30
0.0
 11
-480.508342291576
 21
164.8855749863945
 31
0.0
  0
ARC
  5
247
330
1F
100
AcDbEntity
  8
0
  6
CONTINUOUS
 62
     3
100
AcDbCircle
 10
-547.5083422915758
 20
174.8855749863945
 30
0.0
 40
10.0
100
AcDbArc
 50
180.0
 51
269.9999999999999
  0
ARC
  5
248
330
1F
100
AcDbEntity
  8
0
  6
CONTINUOUS
 62
     3
100
AcDbCircle
 10
-480.508342291576
 20
161.8855749863945
 30
0.0
 40
3.0
100
AcDbArc
 50
0.0
 51
89.99999999999999
  0
ARC
  5
249
330
1F
100
AcDbEntity
  8
0
  6
CONTINUOUS
 62
     3
100
AcDbCircle
 10
-485.1541619820054
 20
336.8855749864044
 30
0.0
 40
3.0
100
AcDbArc
 50
269.9999999999999
 51
360.0
  0
ARC
  5
24A
330
1F
100
AcDbEntity
  8
0
  6
CONTINUOUS
 62
     3
100
AcDbCircle
 10
-485.1541619820069
 20
161.8855749863963
 30
0.0
 40
3.0
100
AcDbArc
 50
0.0
 51
89.99999999999999
  0
LINE
  5
24B
330
1F
100
AcDbEntity
  8
0
  6
CONTINUOUS
 62
     3
100
AcDbLine
 10
-554.5083422915758
 20
217.3855749863949
 30
0.0
 11
-553.4716245082871
 21
217.3855749863937
 31
0.0
  0
ARC
  5
24C
330
1F
100
AcDbEntity
  8
0
  6
CONTINUOUS
 62
     3
100
AcDbCircle
 10
-554.5083422915758
 20
214.3855749863949
 30
0.0
 40
3.0
100
AcDbArc
 50
89.99999999999999
 51
180.0
  0
LINE
  5
24D
330
1F
100
AcDbEntity
  8
0
  6
CONTINUOUS
 62
     3
100
AcDbLine
 10
-554.5083422915761
 20
281.385574986396
 30
0.0
 11
-553.4716245082859
 21
281.3855749863968
 31
0.0
  0
ARC
  5
24E
330
1F
100
AcDbEntity
  8
0
  6
CONTINUOUS
 62
     3
100
AcDbCircle
 10
-554.5083422915758
 20
284.385574986396
 30
0.0
 40
3.0
100
AcDbArc
 50
180.0
 51
269.999999999994
  0
LINE
  5
24F
330
1F
100
AcDbEntity
  8
0
  6
CONTINUOUS
 62
     3
100
AcDbLine
 10
-551.4716245082868
 20
279.3855749863968
 30
0.0
 11
-551.4716245082868
 21
219.3855749863937
 31
0.0
  0
ARC
  5
250
330
1F
100
AcDbEntity
  8
0
  6
CONTINUOUS
 62
     3
100
AcDbCircle
 10
-553.4716245082868
 20
219.3855749863937
 30
0.0
 40
2.0
100
AcDbArc
 50
269.9999999999919
 51
360.0
  0
ARC
  5
251
330
1F
100
AcDbEntity
  8
0
  6
CONTINUOUS
 62
     3
100
AcDbCircle
 10
-553.4716245082868
 20
279.3855749863968
 30
0.0
 40
2.0
100
AcDbArc
 50
0.0
 51
89.99999999997371
  0
ARC
  5
252
330
1F
100
AcDbEntity
  8
0
  6
CONTINUOUS
 62
     3
100
AcDbCircle
 10
-539.2849768183047
 20
323.8855749863947
 30
0.0
 40
10.0
100
AcDbArc
 50
89.99999999999994
 51
180.0
  0
ARC
  5
253
330
1F
100
AcDbEntity
  8
0
  6
CONTINUOUS
 62
     3
100
AcDbCircle
 10
-539.2849768183048
 20
174.8855749863946
 30
0.0
 40
10.0
100
AcDbArc
 50
180.0
 51
269.9999999999999
  0
LINE
  5
254
330
1F
100
AcDbEntity
  8
0
  6
CONTINUOUS
 62
     3
100
AcDbLine
 10
-554.4716245082864
 20
209.3855749863946
 30
0.0
 11
-579.5986661730519
 21
209.3855749863945
 31
0.0
  0
LINE
  5
255
330
1F
100
AcDbEntity
  8
0
  6
CONTINUOUS
 62
     3
100
AcDbLine
 10
-581.5986661730519
 20
191.3855749863946
 30
0.0
 11
-581.5986661730519
 21
207.3855749863945
 31
0.0
  0
ARC
  5
256
330
1F
100
AcDbEntity
  8
0
  6
CONTINUOUS
 62
     3
100
AcDbCircle
 10
-579.5986661730519
 20
207.3855749863945
 30
0.0
 40
2.0
100
AcDbArc
 50
89.99999999999999
 51
180.0
  0
LINE
  5
257
330
1F
100
AcDbEntity
  8
0
  6
CONTINUOUS
 62
     3
100
AcDbLine
 10
-579.5986661730519
 20
189.3855749863946
 30
0.0
 11
-554.4716245082869
 21
189.3855749863944
 31
0.0
  0
ARC
  5
258
330
1F
100
AcDbEntity
  8
0
  6
CONTINUOUS
 62
     3
100
AcDbCircle
 10
-579.5986661730519
 20
191.3855749863946
 30
0.0
 40
2.0
100
AcDbArc
 50
180.0
 51
269.9999999999999
  0
LINE
  5
259
330
1F
100
AcDbEntity
  8
0
  6
CONTINUOUS
 62
     3
100
AcDbLine
 10
-579.5986661730519
 20
309.3855749863944
 30
0.0
 11
-554.4716245082872
 21
309.3855749863943
 31
0.0
  0
LINE
  5
25A
330
1F
100
AcDbEntity
  8
0
  6
CONTINUOUS
 62
     3
100
AcDbLine
 10
-581.5986661730519
 20
307.3855749863944
 30
0.0
 11
-581.5986661730517
 21
291.3855749863945
 31
0.0
  0
ARC
  5
25B
330
1F
100
AcDbEntity
  8
0
  6
CONTINUOUS
 62
     3
100
AcDbCircle
 10
-579.5986661730519
 20
307.3855749863944
 30
0.0
 40
2.0
100
AcDbArc
 50
89.99999999999999
 51
180.0
  0
LINE
  5
25C
330
1F
100
AcDbEntity
  8
0
  6
CONTINUOUS
 62
     3
100
AcDbLine
 10
-579.5986661730517
 20
289.3855749863945
 30
0.0
 11
-554.4716245082875
 21
289.3855749863943
 31
0.0
  0
ARC
  5
25D
330
1F
100
AcDbEntity
  8
0
  6
CONTINUOUS
 62
     3
100
AcDbCircle
 10
-579.5986661730517
 20
291.3855749863945
 30
0.0
 40
2.0
100
AcDbArc
 50
180.0
 51
269.9999999999999
  0
ARC
  5
25E
330
1F
100
AcDbEntity
  8
0
  6
CONTINUOUS
 62
     3
100
AcDbCircle
 10
-573.5089639466503
 20
207.3855749863934
 30
0.0
 40
2.0
100
AcDbArc
 50
89.99999999999999
 51
180.0
  0
ARC
  5
25F
330
1F
100
AcDbEntity
  8
0
  6
CONTINUOUS
 62
     3
100
AcDbCircle
 10
-573.5089639466503
 20
191.3855749863935
 30
0.0
 40
2.0
100
AcDbArc
 50
180.0
 51
269.9999999999999
  0
ARC
  5
260
330
1F
100
AcDbEntity
  8
0
  6
CONTINUOUS
 62
     3
100
AcDbCircle
 10
-573.5089639466501
 20
307.3855749863932
 30
0.0
 40
2.0
100
AcDbArc
 50
89.99999999999999
 51
180.0
  0
ARC
  5
261
330
1F
100
AcDbEntity
  8
0
  6
CONTINUOUS
 62
     3
100
AcDbCircle
 10
-573.5089639466501
 20
291.3855749863934
 30
0.0
 40
2.0
100
AcDbArc
 50
180.0
 51
269.9999999999999
  0
LINE
  5
262
330
1F
100
AcDbEntity
  8
0
  6
CONTINUOUS
 62
     3
100
AcDbLine
 10
-575.5089639466501
 20
307.3855749863932
 30
0.0
 11
-575.5089639466501
 21
291.3855749863934
 31
0.0
  0
LINE
  5
263
330
1F
100
AcDbEntity
  8
0
  6
CONTINUOUS
 62
     3
100
AcDbLine
 10
-575.5089639466503
 20
191.3855749863935
 30
0.0
 11
-575.5089639466503
 21
207.3855749863934
 31
0.0
  0
ARC
  5
264
330
1F
100
AcDbEntity
  8
0
  6
CONTINUOUS
 62
     3
100
AcDbCircle
 10
-554.4716245082864
 20
212.3855749863946
 30
0.0
 40
3.0
100
AcDbArc
 50
269.9999999999999
 51
360.0
  0
ARC
  5
265
330
1F
100
AcDbEntity
  8
0
  6
CONTINUOUS
 62
     3
100
AcDbCircle
 10
-554.4716245082871
 20
186.3855749863944
 30
0.0
 40
3.0
100
AcDbArc
 50
0.0
 51
89.99999999999982
  0
ARC
  5
266
330
1F
100
AcDbEntity
  8
0
  6
CONTINUOUS
 62
     3
100
AcDbCircle
 10
-554.4716245082873
 20
312.3855749863943
 30
0.0
 40
3.0
100
AcDbArc
 50
270.0000000000002
 51
360.0
  0
ARC
  5
267
330
1F
100
AcDbEntity
  8
0
  6
CONTINUOUS
 62
     3
100
AcDbCircle
 10
-554.4716245082875
 20
286.3855749863943
 30
0.0
 40
3.0
100
AcDbArc
 50
0.0
 51
90.00000000000006
  0
LINE
  5
268
330
1F
100
AcDbEntity
  8
0
  6
CONTINUOUS
 62
     3
100
AcDbLine
 10
-551.4716245082873
 20
309.3855749863943
 30
0.0
 11
-551.4716245082873
 21
289.3855749863943
 31
0.0
  0
LINE
  5
269
330
1F
100
AcDbEntity
  8
0
  6
CONTINUOUS
 62
     3
100
AcDbLine
 10
-551.4716245082864
 20
209.3855749863946
 30
0.0
 11
-551.4716245082864
 21
189.3855749863944
 31
0.0
  0
LINE
  5
26A
330
1F
100
AcDbEntity
  8
0
  6
CONTINUOUS
 62
     3
100
AcDbLine
 10
-582.5083422915759
 20
274.3855749863942
 30
0.0
 11
-574.5083422915759
 21
274.3855749863942
 31
0.0
  0
LINE
  5
26B
330
1F
100
AcDbEntity
  8
0
  6
CONTINUOUS
 62
     3
100
AcDbLine
 10
-582.5083422915759
 20
224.3855749863942
 30
0.0
 11
-574.5083422915759
 21
224.3855749863942
 31
0.0
  0
LINE
  5
26C
330
1F
100
AcDbEntity
  8
0
  6
CONTINUOUS
 62
     3
100
AcDbLine
 10
574.9916577084241
 20
-127.3158523106615
 30
0.0
 11
574.9916577084241
 21
-147.3158523106616
 31
0.0
  0
LINE
  5
26D
330
1F
100
AcDbEntity
  8
0
  6
CONTINUOUS
 62
     3
100
AcDbLine
 10
439.991657708424
 20
-127.3158523106616
 30
0.0
 11
439.991657708424
 21
-147.3158523106616
 31
0.0
  0
LINE
  5
26E
330
1F
100
AcDbEntity
  8
0
  6
CONTINUOUS
 62
     3
100
AcDbLine
 10
580.9916577084241
 20
-127.3158523106615
 30
0.0
 11
539.591657708424
 21
-127.3158523106616
 31
0.0
  0
LINE
  5
26F
330
1F
100
AcDbEntity
  8
0
  6
CONTINUOUS
 62
     3
100
AcDbLine
 10
539.591657708424
 20
-127.3158523106616
 30
0.0
 11
537.591657708424
 21
-129.3158523106616
 31
0.0
  0
LINE
  5
270
330
1F
100
AcDbEntity
  8
0
  6
CONTINUOUS
 62
     3
100
AcDbLine
 10
433.9916577084241
 20
-127.3158523106616
 30
0.0
 11
475.391657708424
 21
-127.3158523106616
 31
0.0
  0
LINE
  5
271
330
1F
100
AcDbEntity
  8
0
  6
CONTINUOUS
 62
     3
100
AcDbLine
 10
475.391657708424
 20
-127.3158523106616
 30
0.0
 11
477.391657708424
 21
-129.3158523106617
 31
0.0
  0
LINE
  5
272
330
1F
100
AcDbEntity
  8
0
  6
CONTINUOUS
 62
     3
100
AcDbLine
 10
594.9916577084241
 20
-147.3158523106615
 30
0.0
 11
561.9916577084241
 21
-147.3158523106616
 31
0.0
  0
LINE
  5
273
330
1F
100
AcDbEntity
  8
0
  6
CONTINUOUS
 62
     3
100
AcDbLine
 10
419.991657708424
 20
-147.3158523106616
 30
0.0
 11
452.991657708424
 21
-147.3158523106616
 31
0.0
  0
LINE
  5
274
330
1F
100
AcDbEntity
  8
0
  6
CONTINUOUS
 62
     3
100
AcDbLine
 10
561.9916577084241
 20
-147.3158523106616
 30
0.0
 11
561.9916577084241
 21
-164.3158523106616
 31
0.0
  0
LINE
  5
275
330
1F
100
AcDbEntity
  8
0
  6
CONTINUOUS
 62
     3
100
AcDbLine
 10
452.991657708424
 20
-147.3158523106616
 30
0.0
 11
452.991657708424
 21
-164.3158523106616
 31
0.0
  0
LINE
  5
276
330
1F
100
AcDbEntity
  8
0
  6
CONTINUOUS
 62
     3
100
AcDbLine
 10
561.9916577084241
 20
-164.3158523106616
 30
0.0
 11
564.4916577084241
 21
-164.3158523106616
 31
0.0
  0
LINE
  5
277
330
1F
100
AcDbEntity
  8
0
  6
CONTINUOUS
 62
     3
100
AcDbLine
 10
452.991657708424
 20
-164.3158523106616
 30
0.0
 11
450.491657708424
 21
-164.3158523106616
 31
0.0
  0
LINE
  5
278
330
1F
100
AcDbEntity
  8
0
  6
CONTINUOUS
 62
     3
100
AcDbLine
 10
637.4916577084241
 20
-217.3158523106615
 30
0.0
 11
377.4916577084241
 21
-217.3158523106616
 31
0.0
  0
LINE
  5
279
330
1F
100
AcDbEntity
  8
0
  6
CONTINUOUS
 62
     3
100
AcDbLine
 10
637.4916577084241
 20
-217.3158523106615
 30
0.0
 11
637.4916577084241
 21
-187.3158523106615
 31
0.0
  0
LINE
  5
27A
330
1F
100
AcDbEntity
  8
0
  6
CONTINUOUS
 62
     3
100
AcDbLine
 10
377.4916577084241
 20
-217.3158523106616
 30
0.0
 11
377.491657708424
 21
-187.3158523106616
 31
0.0
  0
LINE
  5
27B
330
1F
100
AcDbEntity
  8
0
  6
CONTINUOUS
 62
     3
100
AcDbLine
 10
637.4916577084241
 20
-187.3158523106615
 30
0.0
 11
597.4916577084241
 21
-187.3158523106615
 31
0.0
  0
LINE
  5
27C
330
1F
100
AcDbEntity
  8
0
  6
CONTINUOUS
 62
     3
100
AcDbLine
 10
377.491657708424
 20
-187.3158523106616
 30
0.0
 11
417.491657708424
 21
-187.3158523106616
 31
0.0
  0
LINE
  5
27D
330
1F
100
AcDbEntity
  8
0
  6
CONTINUOUS
 62
     3
100
AcDbLine
 10
380.491657708424
 20
-190.3158523106617
 30
0.0
 11
478.3916577084241
 21
-190.3158523106617
 31
0.0
  0
LINE
  5
27E
330
1F
100
AcDbEntity
  8
0
  6
CONTINUOUS
 62
     3
100
AcDbLine
 10
536.5916577084245
 20
-190.3158523106617
 30
0.0
 11
634.4916577084243
 21
-190.3158523106617
 31
0.0
  0
ARC
  5
27F
330
1F
100
AcDbEntity
  8
0
  6
CONTINUOUS
 62
     3
100
AcDbCircle
 10
634.4916577084243
 20
-193.3158523106617
 30
0.0
 40
3.0
100
AcDbArc
 50
0.0000000000000127
 51
90.0
  0
ARC
  5
280
330
1F
100
AcDbEntity
  8
0
  6
CONTINUOUS
 62
     3
100
AcDbCircle
 10
380.491657708424
 20
-193.3158523106617
 30
0.0
 40
3.0
100
AcDbArc
 50
90.0
 51
180.0
  0
LINE
  5
281
330
1F
100
AcDbEntity
  8
0
  6
CONTINUOUS
 62
     3
100
AcDbLine
 10
607.4916577084241
 20
-193.3158523106615
 30
0.0
 11
607.4916577084241
 21
-217.3158523106616
 31
0.0
  0
ARC
  5
282
330
1F
100
AcDbEntity
  8
0
  6
CONTINUOUS
 62
     3
100
AcDbCircle
 10
604.4916577084241
 20
-193.3158523106616
 30
0.0
 40
3.0
100
AcDbArc
 50
0.0000000000005725
 51
90.0
  0
LINE
  5
283
330
1F
100
AcDbEntity
  8
0
  6
CONTINUOUS
 62
     3
100
AcDbLine
 10
407.4916577084242
 20
-217.3158523106617
 30
0.0
 11
407.4916577084241
 21
-193.3158523106618
 31
0.0
  0
ARC
  5
284
330
1F
100
AcDbEntity
  8
0
  6
CONTINUOUS
 62
     3
100
AcDbCircle
 10
410.4916577084241
 20
-193.3158523106618
 30
0.0
 40
3.0
100
AcDbArc
 50
90.0
 51
180.0
  0
LINE
  5
285
330
1F
100
AcDbEntity
  8
0
  6
CONTINUOUS
 62
     3
100
AcDbLine
 10
516.9916577084243
 20
-192.3158523106616
 30
0.0
 11
516.9916577084241
 21
-217.3158523106617
 31
0.0
  0
LINE
  5
286
330
1F
100
AcDbEntity
  8
0
  6
CONTINUOUS
 62
     3
100
AcDbLine
 10
497.9916577084242
 20
-192.3158523106615
 30
0.0
 11
497.991657708424
 21
-217.3158523106616
 31
0.0
  0
LINE
  5
287
330
1F
100
AcDbEntity
  8
0
  6
CONTINUOUS
 62
     3
100
AcDbLine
 10
516.4916577084241
 20
-213.3158523106617
 30
0.0
 11
516.4916577084241
 21
-217.3158523106617
 31
0.0
  0
LINE
  5
288
330
1F
100
AcDbEntity
  8
0
  6
CONTINUOUS
 62
     3
100
AcDbLine
 10
498.491657708424
 20
-217.3158523106616
 30
0.0
 11
498.491657708424
 21
-213.3158523106616
 31
0.0
  0
LINE
  5
289
330
1F
100
AcDbEntity
  8
0
  6
CONTINUOUS
 62
     3
100
AcDbLine
 10
498.491657708424
 20
-213.3158523106616
 30
0.0
 11
516.4916577084241
 21
-213.3158523106617
 31
0.0
  0
LINE
  5
28A
330
1F
100
AcDbEntity
  8
0
  6
CONTINUOUS
 62
     3
100
AcDbLine
 10
537.591657708424
 20
-129.3158523106616
 30
0.0
 11
537.591657708424
 21
-189.3158523106616
 31
0.0
  0
LINE
  5
28B
330
1F
100
AcDbEntity
  8
0
  6
CONTINUOUS
 62
     3
100
AcDbLine
 10
537.591657708424
 20
-189.3158523106616
 30
0.0
 11
534.591657708424
 21
-192.3158523106616
 31
0.0
  0
LINE
  5
28C
330
1F
100
AcDbEntity
  8
0
  6
CONTINUOUS
 62
     3
100
AcDbLine
 10
477.391657708424
 20
-129.3158523106617
 30
0.0
 11
477.391657708424
 21
-189.3158523106616
 31
0.0
  0
LINE
  5
28D
330
1F
100
AcDbEntity
  8
0
  6
CONTINUOUS
 62
     3
100
AcDbLine
 10
477.391657708424
 20
-189.3158523106616
 30
0.0
 11
480.391657708424
 21
-192.3158523106616
 31
0.0
  0
LINE
  5
28E
330
1F
100
AcDbEntity
  8
0
  6
CONTINUOUS
 62
     3
100
AcDbLine
 10
534.591657708424
 20
-192.3158523106616
 30
0.0
 11
480.391657708424
 21
-192.3158523106616
 31
0.0
  0
LINE
  5
28F
330
1F
100
AcDbEntity
  8
0
  6
CONTINUOUS
 62
     3
100
AcDbLine
 10
450.491657708424
 20
-164.3158523106616
 30
0.0
 11
450.4916577084242
 21
-181.3158523106616
 31
0.0
  0
LINE
  5
290
330
1F
100
AcDbEntity
  8
0
  6
CONTINUOUS
 62
     3
100
AcDbLine
 10
564.4916577084241
 20
-164.3158523106616
 30
0.0
 11
564.4916577084241
 21
-181.3158523106616
 31
0.0
  0
LINE
  5
291
330
1F
100
AcDbEntity
  8
0
  6
CONTINUOUS
 62
     3
100
AcDbLine
 10
593.9916577084241
 20
-72.31585231066157
 30
0.0
 11
420.991657708424
 21
-72.31585231066168
 31
0.0
  0
LINE
  5
292
330
1F
100
AcDbEntity
  8
0
  6
CONTINUOUS
 62
     3
100
AcDbLine
 10
420.991657708424
 20
-72.31585231066168
 30
0.0
 11
419.991657708424
 21
-73.31585231066163
 31
0.0
  0
LINE
  5
293
330
1F
100
AcDbEntity
  8
0
  6
CONTINUOUS
 62
     3
100
AcDbLine
 10
593.9916577084241
 20
-72.31585231066157
 30
0.0
 11
594.9916577084241
 21
-73.31585231066157
 31
0.0
  0
LINE
  5
294
330
1F
100
AcDbEntity
  8
0
  6
CONTINUOUS
 62
     3
100
AcDbLine
 10
419.991657708424
 20
-163.3158523106616
 30
0.0
 11
419.991657708424
 21
-73.31585231066163
 31
0.0
  0
LINE
  5
295
330
1F
100
AcDbEntity
  8
0
  6
CONTINUOUS
 62
     3
100
AcDbLine
 10
594.9916577084241
 20
-163.3158523106615
 30
0.0
 11
594.9916577084241
 21
-73.31585231066157
 31
0.0
  0
LINE
  5
296
330
1F
100
AcDbEntity
  8
0
  6
CONTINUOUS
 62
     3
100
AcDbLine
 10
427.991657708424
 20
-167.3158523106615
 30
0.0
 11
432.4916577084241
 21
-167.3158523106616
 31
0.0
  0
ARC
  5
297
330
1F
100
AcDbEntity
  8
0
  6
CONTINUOUS
 62
     3
100
AcDbCircle
 10
427.991657708424
 20
-162.3158523106615
 30
0.0
 40
5.0
100
AcDbArc
 50
191.5369590328175
 51
270.0
  0
ARC
  5
298
330
1F
100
AcDbEntity
  8
0
  6
CONTINUOUS
 62
     3
100
AcDbCircle
 10
586.9916577084241
 20
-162.3158523106617
 30
0.0
 40
5.0
100
AcDbArc
 50
336.4218215218011
 51
348.4630409671877
  0
LINE
  5
299
330
1F
100
AcDbEntity
  8
0
  6
CONTINUOUS
 62
     3
100
AcDbLine
 10
577.4916577084241
 20
-184.5259383249545
 30
0.0
 11
577.4916577084241
 21
-186.315852310661
 31
0.0
  0
LINE
  5
29A
330
1F
100
AcDbEntity
  8
0
  6
CONTINUOUS
 62
     3
100
AcDbLine
 10
437.4916577084241
 20
-172.3158523106616
 30
0.0
 11
437.4916577084241
 21
-186.3158523106616
 31
0.0
  0
ARC
  5
29B
330
1F
100
AcDbEntity
  8
0
  6
CONTINUOUS
 62
     3
100
AcDbCircle
 10
432.4916577084241
 20
-172.3158523106616
 30
0.0
 40
5.0
100
AcDbArc
 50
0.0000000000000127
 51
90.0
  0
LINE
  5
29C
330
1F
100
AcDbEntity
  8
0
  6
CONTINUOUS
 62
     3
100
AcDbLine
 10
562.4916577084241
 20
-167.8158523106616
 30
0.0
 11
539.591657708424
 21
-167.8158523106616
 31
0.0
  0
LINE
  5
29D
330
1F
100
AcDbEntity
  8
0
  6
CONTINUOUS
 62
     3
100
AcDbLine
 10
475.3916577084241
 20
-167.8158523106616
 30
0.0
 11
452.491657708424
 21
-167.8158523106616
 31
0.0
  0
ARC
  5
29E
330
1F
100
AcDbEntity
  8
0
  6
CONTINUOUS
 62
     3
100
AcDbCircle
 10
427.4916577084241
 20
-186.3158523106617
 30
0.0
 40
10.0
100
AcDbArc
 50
336.4218215217982
 51
360.0000000000001
  0
ARC
  5
29F
330
1F
100
AcDbEntity
  8
0
  6
CONTINUOUS
 62
     3
100
AcDbCircle
 10
435.4916577084242
 20
-181.3158523106616
 30
0.0
 40
15.0
100
AcDbArc
 50
323.1301023541557
 51
360.0000000000002
  0
ARC
  5
2A0
330
1F
100
AcDbEntity
  8
0
  6
CONTINUOUS
 62
     3
100
AcDbCircle
 10
579.4916577084241
 20
-181.3158523106616
 30
0.0
 40
15.0
100
AcDbArc
 50
179.9999999999997
 51
216.8698976458439
  0
ARC
  5
2A1
330
1F
100
AcDbEntity
  8
0
  6
CONTINUOUS
 62
     3
100
AcDbCircle
 10
587.4916577084241
 20
-186.3158523106612
 30
0.0
 40
10.0
100
AcDbArc
 50
179.9999999999992
 51
203.5781784782039
  0
LINE
  5
2A2
330
1F
100
AcDbEntity
  8
0
  6
CONTINUOUS
 62
     3
100
AcDbLine
 10
-439.5083422915759
 20
-71.31585231066161
 30
0.0
 11
-456.5083422915759
 21
-71.31585231066156
 31
0.0
  0
LINE
  5
2A3
330
1F
100
AcDbEntity
  8
0
  6
CONTINUOUS
 62
     3
100
AcDbLine
 10
-439.5083422915759
 20
-71.31585231066161
 30
0.0
 11
-439.5083422915759
 21
-127.0158523106616
 31
0.0
  0
LINE
  5
2A4
330
1F
100
AcDbEntity
  8
0
  6
CONTINUOUS
 62
     3
100
AcDbLine
 10
-439.5083422915759
 20
338.8855749863945
 30
0.0
 11
-456.5083422915758
 21
338.8855749863943
 31
0.0
  0
LINE
  5
2A5
330
1F
100
AcDbEntity
  8
0
  6
CONTINUOUS
 62
     3
100
AcDbLine
 10
-439.5083422915759
 20
159.8855749863945
 30
0.0
 11
-456.508342291576
 21
159.8855749863945
 31
0.0
  0
LINE
  5
2A6
330
1F
100
AcDbEntity
  8
0
  6
CONTINUOUS
 62
     3
100
AcDbLine
 10
-439.5083422915759
 20
159.8855749863945
 30
0.0
 11
-439.5083422915759
 21
338.8855749863945
 31
0.0
  0
LINE
  5
2A7
330
1F
100
AcDbEntity
  8
0
  6
CONTINUOUS
 62
     3
100
AcDbLine
 10
-290.5083422915755
 20
-190.3158523106616
 30
0.0
 11
-263.0083422915748
 21
-190.3158523106616
 31
0.0
  0
LINE
  5
2A8
330
1F
100
AcDbEntity
  8
0
  6
CONTINUOUS
 62
     3
100
AcDbLine
 10
-262.5083422915748
 20
-189.8158523106616
 30
0.0
 11
-145.1760031830335
 21
-189.8158523106616
 31
0.0
  0
ARC
  5
2A9
330
1F
100
AcDbEntity
  8
0
  6
CONTINUOUS
 62
     3
100
AcDbCircle
 10
-263.0083422915748
 20
-189.8158523106616
 30
0.0
 40
0.5
100
AcDbArc
 50
269.9999999999999
 51
360.0
  0
LINE
  5
2AA
330
1F
100
AcDbEntity
  8
0
  6
CONTINUOUS
 62
     3
100
AcDbLine
 10
-163.6514164364353
 20
-190.3158523106616
 30
0.0
 11
74.4916577084241
 21
-190.315852310662
 31
0.0
  0
ARC
  5
2AB
330
1F
100
AcDbEntity
  8
0
  6
CONTINUOUS
 62
     3
100
AcDbCircle
 10
74.4916577084241
 20
-193.315852310662
 30
0.0
 40
3.0
100
AcDbArc
 50
0.0
 51
89.9999999999999
  0
ARC
  5
2AC
330
1F
100
AcDbEntity
  8
0
  6
CONTINUOUS
 62
     3
100
AcDbCircle
 10
-163.6514164364353
 20
-189.8158523106616
 30
0.0
 40
0.5
100
AcDbArc
 50
180.0
 51
269.9999999999999
  0
ARC
  5
2AD
330
1F
100
AcDbEntity
  8
0
  6
CONTINUOUS
 62
     3
100
AcDbCircle
 10
-144.6760031830334
 20
-189.8158523106616
 30
0.0
 40
0.5
100
AcDbArc
 50
180.0
 51
269.9999999999999
  0
ARC
  5
2AE
330
1F
100
AcDbEntity
  8
0
  6
CONTINUOUS
 62
     3
100
AcDbCircle
 10
594.4916577084218
 20
-187.3158523106617
 30
0.0
 40
3.0
100
AcDbArc
 50
270.0
 51
359.9999999999577
  0
ARC
  5
2AF
330
1F
100
AcDbEntity
  8
0
  6
CONTINUOUS
 62
     3
100
AcDbCircle
 10
420.4916577084243
 20
-187.3158523106617
 30
0.0
 40
3.0
100
AcDbArc
 50
179.9999999999366
 51
270.0
  0
LINE
  5
2B0
330
1F
100
AcDbEntity
  8
0
  6
CONTINUOUS
 62
     3
100
AcDbLine
 10
-464.5083422915759
 20
-190.8158523106616
 30
0.0
 11
-464.5083422915758
 21
-172.3158523106616
 31
0.0
  0
LINE
  5
2B1
330
1F
100
AcDbEntity
  8
0
  6
CONTINUOUS
 62
     3
100
AcDbLine
 10
-469.5083422915758
 20
-167.3158523106616
 30
0.0
 11
-549.5146285439773
 21
-167.3158523106616
 31
0.0
  0
ARC
  5
2B2
330
1F
100
AcDbEntity
  8
0
  6
CONTINUOUS
 62
     3
100
AcDbCircle
 10
-549.5146285439773
 20
-162.3158523106616
 30
0.0
 40
5.0
100
AcDbArc
 50
175.0
 51
269.9999999999999
  0
ARC
  5
2B3
330
1F
100
AcDbEntity
  8
0
  6
CONTINUOUS
 62
     3
100
AcDbCircle
 10
-469.5083422915758
 20
-172.3158523106616
 30
0.0
 40
5.0
100
AcDbArc
 50
0.0
 51
89.99999999999999
  0
LINE
  5
2B4
330
1F
100
AcDbEntity
  8
0
  6
CONTINUOUS
 62
     3
100
AcDbLine
 10
-474.5083422915761
 20
-162.3158523106614
 30
0.0
 11
-474.508342291576
 21
-150.3158523106615
 31
0.0
  0
ARC
  5
2B5
330
1F
100
AcDbEntity
  8
0
  6
CONTINUOUS
 62
     3
100
AcDbCircle
 10
-469.5083422915761
 20
-162.3158523106614
 30
0.0
 40
5.0
100
AcDbArc
 50
180.0
 51
269.9999999999999
  0
ARC
  5
2B6
330
1F
100
AcDbEntity
  8
0
  6
CONTINUOUS
 62
     3
100
AcDbCircle
 10
-469.508342291576
 20
-150.3158523106615
 30
0.0
 40
5.0
100
AcDbArc
 50
89.99999999999967
 51
180.0
  0
LINE
  5
2B7
330
1F
100
AcDbEntity
  8
0
  6
CONTINUOUS
 62
     3
100
AcDbLine
 10
-189.508342291576
 20
-71.31585231066174
 30
0.0
 11
-172.508342291576
 21
-71.31585231066174
 31
0.0
  0
LINE
  5
2B8
330
1F
100
AcDbEntity
  8
0
  6
CONTINUOUS
 62
     3
100
AcDbLine
 10
-172.508342291576
 20
-71.31585231066174
 30
0.0
 11
-171.508342291576
 21
-72.31585231066174
 31
0.0
  0
LINE
  5
2B9
330
1F
100
AcDbEntity
  8
0
  6
CONTINUOUS
 62
     3
100
AcDbLine
 10
-171.508342291576
 20
-127.3158523106617
 30
0.0
 11
-171.508342291576
 21
-72.31585231066174
 31
0.0
  0
LINE
  5
2BA
330
1F
100
AcDbEntity
  8
0
  6
CONTINUOUS
 62
     3
100
AcDbLine
 10
-189.508342291576
 20
-127.3158523106617
 30
0.0
 11
-189.508342291576
 21
-71.31585231066174
 31
0.0
  0
LINE
  5
2BB
330
1F
100
AcDbEntity
  8
0
  6
CONTINUOUS
 62
     3
100
AcDbLine
 10
-176.508342291576
 20
-127.0158523106615
 30
0.0
 11
-176.508342291576
 21
-163.3158523106616
 31
0.0
  0
LINE
  5
2BC
330
1F
100
AcDbEntity
  8
0
  6
CONTINUOUS
 62
     3
100
AcDbLine
 10
33.49165770842404
 20
-147.3158523106616
 30
0.0
 11
33.49165770842399
 21
-78.81585231066214
 31
0.0
  0
LINE
  5
2BD
330
1F
100
AcDbEntity
  8
0
  6
CONTINUOUS
 62
     3
100
AcDbLine
 10
-171.508342291576
 20
-72.31585231066163
 30
0.0
 11
18.49165770842406
 21
-72.31585231066163
 31
0.0
  0
LINE
  5
2BE
330
1F
100
AcDbEntity
  8
0
  6
CONTINUOUS
 62
     3
100
AcDbLine
 10
33.49165770842404
 20
-127.3158523106616
 30
0.0
 11
38.49165770842404
 21
-127.3158523106616
 31
0.0
  0
LINE
  5
2BF
330
1F
100
AcDbEntity
  8
0
  6
CONTINUOUS
 62
     3
100
AcDbLine
 10
19.99165770842406
 20
-73.81585231066151
 30
0.0
 11
38.49165770842404
 21
-73.81585231066163
 31
0.0
  0
ARC
  5
2C0
330
1F
100
AcDbEntity
  8
0
  6
CONTINUOUS
 62
     3
100
AcDbCircle
 10
38.49165770842399
 20
-78.81585231066214
 30
0.0
 40
5.0
100
AcDbArc
 50
89.9999999999995
 51
180.0
  0
LINE
  5
2C1
330
1F
100
AcDbEntity
  8
0
  6
CONTINUOUS
 62
     3
100
AcDbLine
 10
38.49165770842404
 20
-127.3158523106616
 30
0.0
 11
38.49165770842404
 21
-73.31585231066163
 31
0.0
  0
ARC
  5
2C2
330
1F
100
AcDbEntity
  8
0
  6
CONTINUOUS
 62
     3
100
AcDbCircle
 10
19.99165770842406
 20
-72.31585231066151
 30
0.0
 40
1.5
100
AcDbArc
 50
180.0
 51
269.9999999999999
  0
LINE
  5
2C3
330
1F
100
AcDbEntity
  8
0
  6
CONTINUOUS
 62
     3
100
AcDbLine
 10
-126.508342291576
 20
-72.31585231066163
 30
0.0
 11
-126.5083422915761
 21
-98.48803012528842
 31
0.0
  0
LINE
  5
2C4
330
1F
100
AcDbEntity
  8
0
  6
CONTINUOUS
 62
     3
100
AcDbLine
 10
-117.7486896374682
 20
-108.4108088924251
 30
0.0
 11
24.73200505431629
 21
-126.2208957288981
 31
0.0
  0
ARC
  5
2C5
330
1F
100
AcDbEntity
  8
0
  6
CONTINUOUS
 62
     3
100
AcDbCircle
 10
-116.5083422915761
 20
-98.48803012528842
 30
0.0
 40
10.0
100
AcDbArc
 50
180.0
 51
262.8749836510982
  0
ARC
  5
2C6
330
1F
100
AcDbEntity
  8
0
  6
CONTINUOUS
 62
     3
100
AcDbCircle
 10
23.49165770842421
 20
-136.1436744960349
 30
0.0
 40
10.0
100
AcDbArc
 50
0.0
 51
82.87498365109821
  0
LINE
  5
2C7
330
1F
100
AcDbEntity
  8
0
  6
CONTINUOUS
 62
     3
100
AcDbLine
 10
32.49165770842404
 20
-163.3158523106616
 30
0.0
 11
32.49165770842404
 21
-147.3158523106616
 31
0.0
  0
LINE
  5
2C8
330
1F
100
AcDbEntity
  8
0
  6
CONTINUOUS
 62
     3
100
AcDbLine
 10
32.49165770842404
 20
-163.3158523106616
 30
0.0
 11
-176.508342291576
 21
-163.3158523106616
 31
0.0
  0
LINE
  5
2C9
330
1F
100
AcDbEntity
  8
0
  6
CONTINUOUS
 62
     3
100
AcDbLine
 10
-189.508342291576
 20
338.8855749863945
 30
0.0
 11
-172.508342291576
 21
338.8855749863945
 31
0.0
  0
LINE
  5
2CA
330
1F
100
AcDbEntity
  8
0
  6
CONTINUOUS
 62
     3
100
AcDbLine
 10
-172.508342291576
 20
338.8855749863945
 30
0.0
 11
-171.508342291576
 21
337.8855749863945
 31
0.0
  0
LINE
  5
2CB
330
1F
100
AcDbEntity
  8
0
  6
CONTINUOUS
 62
     3
100
AcDbLine
 10
-189.508342291576
 20
338.8855749863945
 30
0.0
 11
-189.508342291576
 21
159.8855749863945
 31
0.0
  0
LINE
  5
2CC
330
1F
100
AcDbEntity
  8
0
  6
CONTINUOUS
 62
     3
100
AcDbLine
 10
-189.508342291576
 20
159.8855749863945
 30
0.0
 11
-172.508342291576
 21
159.8855749863945
 31
0.0
  0
LINE
  5
2CD
330
1F
100
AcDbEntity
  8
0
  6
CONTINUOUS
 62
     3
100
AcDbLine
 10
-172.508342291576
 20
159.8855749863945
 30
0.0
 11
-171.508342291576
 21
160.8855749863943
 31
0.0
  0
LINE
  5
2CE
330
1F
100
AcDbEntity
  8
0
  6
CONTINUOUS
 62
     3
100
AcDbLine
 10
-171.508342291576
 20
337.8855749863945
 30
0.0
 11
-171.508342291576
 21
160.8855749863943
 31
0.0
  0
LINE
  5
2CF
330
1F
100
AcDbEntity
  8
0
  6
CONTINUOUS
 62
     3
100
AcDbLine
 10
-171.508342291576
 20
161.8855749863945
 30
0.0
 11
33.49165770842404
 21
161.8855749863945
 31
0.0
  0
LINE
  5
2D0
330
1F
100
AcDbEntity
  8
0
  6
CONTINUOUS
 62
     3
100
AcDbLine
 10
-171.508342291576
 20
336.8855749863945
 30
0.0
 11
33.49165770842404
 21
336.8855749863945
 31
0.0
  0
LINE
  5
2D1
330
1F
100
AcDbEntity
  8
0
  6
CONTINUOUS
 62
     3
100
AcDbLine
 10
38.49165770842404
 20
175.8855749863945
 30
0.0
 11
38.49165770842404
 21
322.8855749863945
 31
0.0
  0
LINE
  5
2D2
330
1F
100
AcDbEntity
  8
0
  6
CONTINUOUS
 62
     3
100
AcDbLine
 10
-122.5083422915761
 20
332.8855749863945
 30
0.0
 11
23.49165770842404
 21
332.8855749863945
 31
0.0
  0
LINE
  5
2D3
330
1F
100
AcDbEntity
  8
0
  6
CONTINUOUS
 62
     3
100
AcDbLine
 10
-122.5083422915753
 20
165.8855749863945
 30
0.0
 11
23.49165770842433
 21
165.8855749863945
 31
0.0
  0
LINE
  5
2D4
330
1F
100
AcDbEntity
  8
0
  6
CONTINUOUS
 62
     3
100
AcDbLine
 10
33.49165770842404
 20
173.3855749863942
 30
0.0
 11
33.49165770842404
 21
161.8855749863945
 31
0.0
  0
ARC
  5
2D5
330
1F
100
AcDbEntity
  8
0
  6
CONTINUOUS
 62
     3
100
AcDbCircle
 10
23.49165770842433
 20
175.8855749863945
 30
0.0
 40
10.0
100
AcDbArc
 50
269.9999999999999
 51
337.3801350519609
  0
LINE
  5
2D6
330
1F
100
AcDbEntity
  8
0
  6
CONTINUOUS
 62
     3
100
AcDbLine
 10
33.49165770842404
 20
325.3855749863945
 30
0.0
 11
33.49165770842404
 21
336.8855749863945
 31
0.0
  0
ARC
  5
2D7
330
1F
100
AcDbEntity
  8
0
  6
CONTINUOUS
 62
     3
100
AcDbCircle
 10
23.49165770842404
 20
322.8855749863945
 30
0.0
 40
10.0
100
AcDbArc
 50
22.61986494804023
 51
89.99999999999999
  0
ARC
  5
2D8
330
1F
100
AcDbEntity
  8
0
  6
CONTINUOUS
 62
     3
100
AcDbCircle
 10
38.49165770842399
 20
169.6355749863951
 30
0.0
 40
6.249999999999417
100
AcDbArc
 50
89.99999999999947
 51
157.380135051961
  0
ARC
  5
2D9
330
1F
100
AcDbEntity
  8
0
  6
CONTINUOUS
 62
     3
100
AcDbCircle
 10
38.49165770842404
 20
329.1355749863944
 30
0.0
 40
6.249999999999957
100
AcDbArc
 50
202.6198649480404
 51
269.9999999999999
  0
LINE
  5
2DA
330
1F
100
AcDbEntity
  8
0
  6
CONTINUOUS
 62
     3
100
AcDbLine
 10
18.49165770842399
 20
293.3572511204152
 30
0.0
 11
18.49165770842399
 21
205.4138988523737
 31
0.0
  0
LINE
  5
2DB
330
1F
100
AcDbEntity
  8
0
  6
CONTINUOUS
 62
     3
100
AcDbLine
 10
5.035144974706554
 20
308.2776280278135
 30
0.0
 11
-111.5879653841779
 21
320.3420877201119
 31
0.0
  0
ARC
  5
2DC
330
1F
100
AcDbEntity
  8
0
  6
CONTINUOUS
 62
     3
100
AcDbCircle
 10
3.491657708423986
 20
293.3572511204152
 30
0.0
 40
15.0
100
AcDbArc
 50
0.0
 51
84.09385888622948
  0
ARC
  5
2DD
330
1F
100
AcDbEntity
  8
0
  6
CONTINUOUS
 62
     3
100
AcDbCircle
 10
-122.5083422915761
 20
336.8855749863945
 30
0.0
 40
4.0
100
AcDbArc
 50
180.0
 51
269.9999999999999
  0
LINE
  5
2DE
330
1F
100
AcDbEntity
  8
0
  6
CONTINUOUS
 62
     3
100
AcDbLine
 10
5.035144974706554
 20
190.4935219449754
 30
0.0
 11
-111.5879653841779
 21
178.4290622526771
 31
0.0
  0
ARC
  5
2DF
330
1F
100
AcDbEntity
  8
0
  6
CONTINUOUS
 62
     3
100
AcDbCircle
 10
3.491657708423986
 20
205.4138988523737
 30
0.0
 40
15.0
100
AcDbArc
 50
275.9061411137705
 51
360.0
  0
ARC
  5
2E0
330
1F
100
AcDbEntity
  8
0
  6
CONTINUOUS
 62
     3
100
AcDbCircle
 10
-109.8765701497348
 20
336.8855749863945
 30
0.0
 40
16.6317721418413
100
AcDbArc
 50
180.0
 51
264.0938588862292
  0
ARC
  5
2E1
330
1F
100
AcDbEntity
  8
0
  6
CONTINUOUS
 62
     3
100
AcDbCircle
 10
-109.8765701497348
 20
161.8855749863945
 30
0.0
 40
16.63177214184127
100
AcDbArc
 50
95.90614111377056
 51
180.0000000000001
  0
ARC
  5
2E2
330
1F
100
AcDbEntity
  8
0
  6
CONTINUOUS
 62
     3
100
AcDbCircle
 10
-122.5083422915753
 20
161.8855749863945
 30
0.0
 40
4.0
100
AcDbArc
 50
89.99999999999999
 51
180.0
  0
LINE
  5
2E3
330
1F
100
AcDbEntity
  8
0
  6
CONTINUOUS
 62
     3
100
AcDbLine
 10
38.49165770842404
 20
322.8855749863945
 30
0.0
 11
55.49165770842404
 21
322.8855749863945
 31
0.0
  0
LINE
  5
2E4
330
1F
100
AcDbEntity
  8
0
  6
CONTINUOUS
 62
     3
100
AcDbLine
 10
38.49165770842404
 20
175.8855749863945
 30
0.0
 11
55.4916577084241
 21
175.8855749863944
 31
0.0
  0
LINE
  5
2E5
330
1F
100
AcDbEntity
  8
0
  6
CONTINUOUS
 62
     3
100
AcDbLine
 10
58.49165770842404
 20
319.8855749863945
 30
0.0
 11
58.49165770842404
 21
267.2811436177249
 31
0.0
  0
ARC
  5
2E6
330
1F
100
AcDbEntity
  8
0
  6
CONTINUOUS
 62
     3
100
AcDbCircle
 10
55.49165770842404
 20
319.8855749863945
 30
0.0
 40
3.0
100
AcDbArc
 50
0.0
 51
89.99999999999997
  0
LINE
  5
2E7
330
1F
100
AcDbEntity
  8
0
  6
CONTINUOUS
 62
     3
100
AcDbLine
 10
58.4916577084241
 20
178.8855749863944
 30
0.0
 11
58.49165770842404
 21
231.4900063550653
 31
0.0
  0
ARC
  5
2E8
330
1F
100
AcDbEntity
  8
0
  6
CONTINUOUS
 62
     3
100
AcDbCircle
 10
55.4916577084241
 20
178.8855749863944
 30
0.0
 40
3.0
100
AcDbArc
 50
269.9999999999999
 51
360.0
  0
LINE
  5
2E9
330
1F
100
AcDbEntity
  8
0
  6
CONTINUOUS
 62
     3
100
AcDbLine
 10
121.491657708424
 20
272.8855749863945
 30
0.0
 11
121.491657708424
 21
225.8855749863945
 31
0.0
  0
LINE
  5
2EA
330
1F
100
AcDbEntity
  8
0
  6
CONTINUOUS
 62
     3
100
AcDbLine
 10
118.491657708424
 20
285.8855749863945
 30
0.0
 11
118.4916577084239
 21
212.8855749863945
 31
0.0
  0
LINE
  5
2EB
330
1F
100
AcDbEntity
  8
0
  6
CONTINUOUS
 62
     3
100
AcDbLine
 10
112.491657708424
 20
206.8855749863945
 30
0.0
 11
64.4916577084241
 21
206.8855749863945
 31
0.0
  0
ARC
  5
2EC
330
1F
100
AcDbEntity
  8
0
  6
CONTINUOUS
 62
     3
100
AcDbCircle
 10
64.4916577084241
 20
200.8855749863945
 30
0.0
 40
6.0
100
AcDbArc
 50
90.0
 51
180.0
  0
ARC
  5
2ED
330
1F
100
AcDbEntity
  8
0
  6
CONTINUOUS
 62
     3
100
AcDbCircle
 10
112.491657708424
 20
212.8855749863945
 30
0.0
 40
6.0
100
AcDbArc
 50
269.9999999999999
 51
360.0
  0
LINE
  5
2EE
330
1F
100
AcDbEntity
  8
0
  6
CONTINUOUS
 62
     3
100
AcDbLine
 10
64.49165770842404
 20
291.8855749863945
 30
0.0
 11
112.491657708424
 21
291.8855749863945
 31
0.0
  0
ARC
  5
2EF
330
1F
100
AcDbEntity
  8
0
  6
CONTINUOUS
 62
     3
100
AcDbCircle
 10
64.49165770842404
 20
297.8855749863945
 30
0.0
 40
6.0
100
AcDbArc
 50
180.0
 51
270.0
  0
ARC
  5
2F0
330
1F
100
AcDbEntity
  8
0
  6
CONTINUOUS
 62
     3
100
AcDbCircle
 10
112.491657708424
 20
285.8855749863945
 30
0.0
 40
6.0
100
AcDbArc
 50
0.0
 51
89.99999999999999
  0
ARC
  5
2F1
330
1F
100
AcDbEntity
  8
0
  6
CONTINUOUS
 62
     3
100
AcDbCircle
 10
121.491657708424
 20
275.885574986395
 30
0.0
 40
3.0
100
AcDbArc
 50
180.0
 51
269.9999999999994
  0
ARC
  5
2F2
330
1F
100
AcDbEntity
  8
0
  6
CONTINUOUS
 62
     3
100
AcDbCircle
 10
121.491657708424
 20
222.8855749863956
 30
0.0
 40
3.0
100
AcDbArc
 50
89.99999999998262
 51
180.0
  0
ARC
  5
2F3
330
1F
100
AcDbEntity
  8
0
  6
CONTINUOUS
 62
     3
100
AcDbCircle
 10
61.49165770842404
 20
267.2811436177249
 30
0.0
 40
3.0
100
AcDbArc
 50
180.0
 51
269.9999999999999
  0
ARC
  5
2F4
330
1F
100
AcDbEntity
  8
0
  6
CONTINUOUS
 62
     3
100
AcDbCircle
 10
61.49165770842404
 20
231.4900063550653
 30
0.0
 40
3.0
100
AcDbArc
 50
89.99999999999999
 51
180.0
  0
LINE
  5
2F5
330
1F
100
AcDbEntity
  8
0
  6
CONTINUOUS
 62
     3
100
AcDbLine
 10
93.49165770842376
 20
-126.8158523106616
 30
0.0
 11
38.49165770842404
 21
-126.8158523106616
 31
0.0
  0
LINE
  5
2F6
330
1F
100
AcDbEntity
  8
0
  6
CONTINUOUS
 62
     3
100
AcDbLine
 10
58.49165770842393
 20
-124.815852310662
 30
0.0
 11
58.4916577084241
 21
-75.31585231066191
 31
0.0
  0
ARC
  5
2F7
330
1F
100
AcDbEntity
  8
0
  6
CONTINUOUS
 62
     3
100
AcDbCircle
 10
56.49165770842393
 20
-124.815852310662
 30
0.0
 40
2.0
100
AcDbArc
 50
269.9999999999999
 51
360.0
  0
LINE
  5
2F8
330
1F
100
AcDbEntity
  8
0
  6
CONTINUOUS
 62
     3
100
AcDbLine
 10
121.4916577084239
 20
-83.81585231066163
 30
0.0
 11
121.4916577084239
 21
-130.8158523106616
 31
0.0
  0
ARC
  5
2F9
330
1F
100
AcDbEntity
  8
0
  6
CONTINUOUS
 62
     3
100
AcDbCircle
 10
121.4916577084239
 20
-80.81585231066114
 30
0.0
 40
3.0
100
AcDbArc
 50
180.0
 51
269.9999999999994
  0
ARC
  5
2FA
330
1F
100
AcDbEntity
  8
0
  6
CONTINUOUS
 62
     3
100
AcDbCircle
 10
121.4916577084239
 20
-133.8158523106605
 30
0.0
 40
3.0
100
AcDbArc
 50
89.99999999998262
 51
180.0
  0
LINE
  5
2FB
330
1F
100
AcDbEntity
  8
0
  6
CONTINUOUS
 62
     3
100
AcDbLine
 10
118.4916577084239
 20
-78.31585231066154
 30
0.0
 11
118.491657708424
 21
-138.3158523106617
 31
0.0
  0
LINE
  5
2FC
330
1F
100
AcDbEntity
  8
0
  6
CONTINUOUS
 62
     3
100
AcDbLine
 10
116.491657708424
 20
-140.3158523106617
 30
0.0
 11
100.491657708424
 21
-140.3158523106615
 31
0.0
  0
ARC
  5
2FD
330
1F
100
AcDbEntity
  8
0
  6
CONTINUOUS
 62
     3
100
AcDbCircle
 10
116.4916577084241
 20
-138.3158523106617
 30
0.0
 40
2.0
100
AcDbArc
 50
269.9999999999996
 51
360.0
  0
LINE
  5
2FE
330
1F
100
AcDbEntity
  8
0
  6
CONTINUOUS
 62
     3
100
AcDbLine
 10
38.49165770842404
 20
-73.31585231066163
 30
0.0
 11
113.491657708424
 21
-73.31585231066154
 31
0.0
  0
ARC
  5
2FF
330
1F
100
AcDbEntity
  8
0
  6
CONTINUOUS
 62
     3
100
AcDbCircle
 10
113.491657708424
 20
-78.31585231066154
 30
0.0
 40
5.0
100
AcDbArc
 50
0.0
 51
89.99999999999999
  0
ARC
  5
300
330
1F
100
AcDbEntity
  8
0
  6
CONTINUOUS
 62
     3
100
AcDbCircle
 10
56.4916577084241
 20
-75.31585231066191
 30
0.0
 40
2.0
100
AcDbArc
 50
0.0
 51
89.99999999999999
  0
LINE
  5
301
330
1F
100
AcDbEntity
  8
0
  6
CONTINUOUS
 62
     3
100
AcDbLine
 10
98.49165770842404
 20
-138.3158523106616
 30
0.0
 11
98.49165770842376
 21
-123.8158523106616
 31
0.0
  0
ARC
  5
302
330
1F
100
AcDbEntity
  8
0
  6
CONTINUOUS
 62
     3
100
AcDbCircle
 10
100.491657708424
 20
-138.3158523106616
 30
0.0
 40
2.0
100
AcDbArc
 50
180.0
 51
269.9999999999999
  0
LINE
  5
303
330
1F
100
AcDbEntity
  8
0
  6
CONTINUOUS
 62
     3
100
AcDbLine
 10
96.49165770842291
 20
-123.8158523106614
 30
0.0
 11
118.4916577084238
 21
-123.8158523106616
 31
0.0
  0
ARC
  5
304
330
1F
100
AcDbEntity
  8
0
  6
CONTINUOUS
 62
     3
100
AcDbCircle
 10
96.49165770842291
 20
-126.8158523106614
 30
0.0
 40
3.0
100
AcDbArc
 50
89.99999999999999
 51
180.0
  0
ARC
  5
305
330
1F
100
AcDbEntity
  8
0
  6
CONTINUOUS
 62
     3
100
AcDbCircle
 10
56.49165770842325
 20
-86.31585231066165
 30
0.0
 40
2.0
100
AcDbArc
 50
0.0
 51
89.99999999999999
  0
LINE
  5
306
330
1F
100
AcDbEntity
  8
0
  6
CONTINUOUS
 62
     3
100
AcDbLine
 10
56.49165770842325
 20
-84.31585231066165
 30
0.0
 11
38.49165770842404
 21
-84.31585231066165
 31
0.0
  0
LINE
  5
307
330
1F
100
AcDbEntity
  8
0
  6
CONTINUOUS
 62
     3
100
AcDbLine
 10
121.4916577084239
 20
260.3855749863945
 30
0.0
 11
128.5916577084238
 21
260.3855749863945
 31
0.0
  0
LINE
  5
308
330
1F
100
AcDbEntity
  8
0
  6
CONTINUOUS
 62
     3
100
AcDbLine
 10
129.1916577084239
 20
260.3855749863945
 30
0.0
 11
136.8916577084238
 21
260.3855749863945
 31
0.0
  0
LINE
  5
309
330
1F
100
AcDbEntity
  8
0
  6
CONTINUOUS
 62
     3
100
AcDbLine
 10
137.4916577084238
 20
260.3855749863945
 30
0.0
 11
145.1916577084239
 21
260.3855749863945
 31
0.0
  0
LINE
  5
30A
330
1F
100
AcDbEntity
  8
0
  6
CONTINUOUS
 62
     3
100
AcDbLine
 10
145.7916577084239
 20
260.3855749863945
 30
0.0
 11
176.3935814970705
 21
260.3855749863945
 31
0.0
  0
LINE
  5
30B
330
1F
100
AcDbEntity
  8
0
  6
CONTINUOUS
 62
     3
100
AcDbLine
 10
121.4916577084239
 20
238.3855749863945
 30
0.0
 11
128.5916577084238
 21
238.3855749863945
 31
0.0
  0
LINE
  5
30C
330
1F
100
AcDbEntity
  8
0
  6
CONTINUOUS
 62
     3
100
AcDbLine
 10
129.1916577084239
 20
238.3855749863945
 30
0.0
 11
136.8916577084238
 21
238.3855749863945
 31
0.0
  0
LINE
  5
30D
330
1F
100
AcDbEntity
  8
0
  6
CONTINUOUS
 62
     3
100
AcDbLine
 10
137.4916577084238
 20
238.3855749863945
 30
0.0
 11
145.1916577084239
 21
238.3855749863945
 31
0.0
  0
LINE
  5
30E
330
1F
100
AcDbEntity
  8
0
  6
CONTINUOUS
 62
     3
100
AcDbLine
 10
145.7916577084239
 20
238.3855749863945
 30
0.0
 11
176.3935814970705
 21
238.3855749863945
 31
0.0
  0
LINE
  5
30F
330
1F
100
AcDbEntity
  8
0
  6
CONTINUOUS
 62
     3
100
AcDbLine
 10
128.5916577084238
 20
260.3855749863944
 30
0.0
 11
128.5916577084238
 21
238.3855749863945
 31
0.0
  0
LINE
  5
310
330
1F
100
AcDbEntity
  8
0
  6
CONTINUOUS
 62
     3
100
AcDbLine
 10
129.1916577084239
 20
238.3855749863945
 30
0.0
 11
129.1916577084239
 21
260.3855749863944
 31
0.0
  0
ARC
  5
311
330
1F
100
AcDbEntity
  8
0
  6
CONTINUOUS
 62
     3
100
AcDbCircle
 10
128.8916577084221
 20
260.3855749863924
 30
0.0
 40
0.2999999999978673
100
AcDbArc
 50
179.9999999996037
 51
360.0000000003963
  0
ARC
  5
312
330
1F
100
AcDbEntity
  8
0
  6
CONTINUOUS
 62
     3
100
AcDbCircle
 10
128.8916577084239
 20
238.3855749863945
 30
0.0
 40
0.2999999999999687
100
AcDbArc
 50
359.9999999999918
 51
540.0000000000082
  0
LINE
  5
313
330
1F
100
AcDbEntity
  8
0
  6
CONTINUOUS
 62
     3
100
AcDbLine
 10
136.8916577084238
 20
260.3855749863944
 30
0.0
 11
136.8916577084238
 21
238.3855749863945
 31
0.0
  0
LINE
  5
314
330
1F
100
AcDbEntity
  8
0
  6
CONTINUOUS
 62
     3
100
AcDbLine
 10
137.4916577084238
 20
238.3855749863945
 30
0.0
 11
137.4916577084238
 21
260.3855749863944
 31
0.0
  0
ARC
  5
315
330
1F
100
AcDbEntity
  8
0
  6
CONTINUOUS
 62
     3
100
AcDbCircle
 10
137.191657708422
 20
260.3855749863924
 30
0.0
 40
0.2999999999978673
100
AcDbArc
 50
179.9999999996037
 51
360.0000000003963
  0
ARC
  5
316
330
1F
100
AcDbEntity
  8
0
  6
CONTINUOUS
 62
     3
100
AcDbCircle
 10
137.1916577084239
 20
238.3855749863945
 30
0.0
 40
0.2999999999999687
100
AcDbArc
 50
359.9999999999918
 51
540.0000000000082
  0
LINE
  5
317
330
1F
100
AcDbEntity
  8
0
  6
CONTINUOUS
 62
     3
100
AcDbLine
 10
145.1916577084239
 20
260.3855749863944
 30
0.0
 11
145.1916577084239
 21
238.3855749863945
 31
0.0
  0
LINE
  5
318
330
1F
100
AcDbEntity
  8
0
  6
CONTINUOUS
 62
     3
100
AcDbLine
 10
145.7916577084239
 20
238.3855749863945
 30
0.0
 11
145.7916577084239
 21
260.3855749863944
 31
0.0
  0
ARC
  5
319
330
1F
100
AcDbEntity
  8
0
  6
CONTINUOUS
 62
     3
100
AcDbCircle
 10
145.4916577084221
 20
260.3855749863924
 30
0.0
 40
0.2999999999978673
100
AcDbArc
 50
179.9999999996037
 51
360.0000000003963
  0
ARC
  5
31A
330
1F
100
AcDbEntity
  8
0
  6
CONTINUOUS
 62
     3
100
AcDbCircle
 10
145.4916577084239
 20
238.3855749863945
 30
0.0
 40
0.2999999999999687
100
AcDbArc
 50
359.9999999999918
 51
540.0000000000082
  0
LINE
  5
31B
330
1F
100
AcDbEntity
  8
0
  6
CONTINUOUS
 62
     3
100
AcDbLine
 10
121.4916577084239
 20
-96.3158523106616
 30
0.0
 11
128.5916577084238
 21
-96.3158523106616
 31
0.0
  0
LINE
  5
31C
330
1F
100
AcDbEntity
  8
0
  6
CONTINUOUS
 62
     3
100
AcDbLine
 10
129.1916577084239
 20
-96.3158523106616
 30
0.0
 11
136.8916577084238
 21
-96.3158523106616
 31
0.0
  0
LINE
  5
31D
330
1F
100
AcDbEntity
  8
0
  6
CONTINUOUS
 62
     3
100
AcDbLine
 10
137.4916577084238
 20
-96.3158523106616
 30
0.0
 11
145.1916577084239
 21
-96.3158523106616
 31
0.0
  0
LINE
  5
31E
330
1F
100
AcDbEntity
  8
0
  6
CONTINUOUS
 62
     3
100
AcDbLine
 10
145.7916577084239
 20
-96.3158523106616
 30
0.0
 11
176.3935814970703
 21
-96.3158523106616
 31
0.0
  0
LINE
  5
31F
330
1F
100
AcDbEntity
  8
0
  6
CONTINUOUS
 62
     3
100
AcDbLine
 10
121.4916577084239
 20
-118.3158523106616
 30
0.0
 11
128.5916577084238
 21
-118.3158523106616
 31
0.0
  0
LINE
  5
320
330
1F
100
AcDbEntity
  8
0
  6
CONTINUOUS
 62
     3
100
AcDbLine
 10
129.1916577084239
 20
-118.3158523106616
 30
0.0
 11
136.8916577084238
 21
-118.3158523106616
 31
0.0
  0
LINE
  5
321
330
1F
100
AcDbEntity
  8
0
  6
CONTINUOUS
 62
     3
100
AcDbLine
 10
137.4916577084238
 20
-118.3158523106616
 30
0.0
 11
145.1916577084239
 21
-118.3158523106616
 31
0.0
  0
LINE
  5
322
330
1F
100
AcDbEntity
  8
0
  6
CONTINUOUS
 62
     3
100
AcDbLine
 10
145.7916577084239
 20
-118.3158523106616
 30
0.0
 11
176.3935814970703
 21
-118.3158523106616
 31
0.0
  0
LINE
  5
323
330
1F
100
AcDbEntity
  8
0
  6
CONTINUOUS
 62
     3
100
AcDbLine
 10
128.5916577084238
 20
-96.31585231066163
 30
0.0
 11
128.5916577084238
 21
-118.3158523106616
 31
0.0
  0
LINE
  5
324
330
1F
100
AcDbEntity
  8
0
  6
CONTINUOUS
 62
     3
100
AcDbLine
 10
129.1916577084239
 20
-118.3158523106616
 30
0.0
 11
129.1916577084239
 21
-96.31585231066163
 31
0.0
  0
ARC
  5
325
330
1F
100
AcDbEntity
  8
0
  6
CONTINUOUS
 62
     3
100
AcDbCircle
 10
128.8916577084221
 20
-96.31585231066373
 30
0.0
 40
0.2999999999978673
100
AcDbArc
 50
179.9999999996037
 51
360.0000000003963
  0
ARC
  5
326
330
1F
100
AcDbEntity
  8
0
  6
CONTINUOUS
 62
     3
100
AcDbCircle
 10
128.8916577084239
 20
-118.3158523106616
 30
0.0
 40
0.2999999999999687
100
AcDbArc
 50
359.9999999999918
 51
540.0000000000082
  0
LINE
  5
327
330
1F
100
AcDbEntity
  8
0
  6
CONTINUOUS
 62
     3
100
AcDbLine
 10
136.8916577084238
 20
-96.31585231066163
 30
0.0
 11
136.8916577084238
 21
-118.3158523106616
 31
0.0
  0
LINE
  5
328
330
1F
100
AcDbEntity
  8
0
  6
CONTINUOUS
 62
     3
100
AcDbLine
 10
137.4916577084238
 20
-118.3158523106616
 30
0.0
 11
137.4916577084238
 21
-96.31585231066163
 31
0.0
  0
ARC
  5
329
330
1F
100
AcDbEntity
  8
0
  6
CONTINUOUS
 62
     3
100
AcDbCircle
 10
137.191657708422
 20
-96.31585231066373
 30
0.0
 40
0.2999999999978673
100
AcDbArc
 50
179.9999999996037
 51
360.0000000003963
  0
ARC
  5
32A
330
1F
100
AcDbEntity
  8
0
  6
CONTINUOUS
 62
     3
100
AcDbCircle
 10
137.1916577084239
 20
-118.3158523106616
 30
0.0
 40
0.2999999999999687
100
AcDbArc
 50
359.9999999999918
 51
540.0000000000082
  0
LINE
  5
32B
330
1F
100
AcDbEntity
  8
0
  6
CONTINUOUS
 62
     3
100
AcDbLine
 10
145.1916577084239
 20
-96.31585231066163
 30
0.0
 11
145.1916577084239
 21
-118.3158523106616
 31
0.0
  0
LINE
  5
32C
330
1F
100
AcDbEntity
  8
0
  6
CONTINUOUS
 62
     3
100
AcDbLine
 10
145.7916577084239
 20
-118.3158523106616
 30
0.0
 11
145.7916577084239
 21
-96.31585231066163
 31
0.0
  0
ARC
  5
32D
330
1F
100
AcDbEntity
  8
0
  6
CONTINUOUS
 62
     3
100
AcDbCircle
 10
145.4916577084221
 20
-96.31585231066373
 30
0.0
 40
0.2999999999978673
100
AcDbArc
 50
179.9999999996037
 51
360.0000000003963
  0
ARC
  5
32E
330
1F
100
AcDbEntity
  8
0
  6
CONTINUOUS
 62
     3
100
AcDbCircle
 10
145.4916577084239
 20
-118.3158523106616
 30
0.0
 40
0.2999999999999687
100
AcDbArc
 50
359.9999999999918
 51
540.0000000000082
  0
LINE
  5
32F
330
1F
100
AcDbEntity
  8
0
  6
CONTINUOUS
 62
     3
100
AcDbLine
 10
203.9916577084238
 20
-98.31585231066163
 30
0.0
 11
203.9916577084238
 21
-116.3158523106616
 31
0.0
  0
LINE
  5
330
330
1F
100
AcDbEntity
  8
0
  6
CONTINUOUS
 62
     3
100
AcDbLine
 10
208.9916577084238
 20
-98.31585231066163
 30
0.0
 11
208.9916577084238
 21
-116.3158523106616
 31
0.0
  0
LINE
  5
331
330
1F
100
AcDbEntity
  8
0
  6
CONTINUOUS
 62
     3
100
AcDbLine
 10
208.9916577084238
 20
-98.31585231066163
 30
0.0
 11
203.9916577084238
 21
-98.31585231066163
 31
0.0
  0
LINE
  5
332
330
1F
100
AcDbEntity
  8
0
  6
CONTINUOUS
 62
     3
100
AcDbLine
 10
208.9916577084238
 20
-116.3158523106616
 30
0.0
 11
203.9916577084238
 21
-116.3158523106616
 31
0.0
  0
LINE
  5
333
330
1F
100
AcDbEntity
  8
0
  6
CONTINUOUS
 62
     3
100
AcDbLine
 10
227.4916577084235
 20
-115.3158523106611
 30
0.0
 11
227.4916577084238
 21
-99.315852310662
 31
0.0
  0
LINE
  5
334
330
1F
100
AcDbEntity
  8
0
  6
CONTINUOUS
 62
     3
100
AcDbLine
 10
227.4916577084238
 20
-99.315852310662
 30
0.0
 11
226.4916577084243
 21
-98.3158523106616
 31
0.0
  0
LINE
  5
335
330
1F
100
AcDbEntity
  8
0
  6
CONTINUOUS
 62
     3
100
AcDbLine
 10
226.4916577084235
 20
-116.3158523106612
 30
0.0
 11
227.4916577084235
 21
-115.3158523106611
 31
0.0
  0
LINE
  5
336
330
1F
100
AcDbEntity
  8
0
  6
CONTINUOUS
 62
     3
100
AcDbLine
 10
214.4916577084238
 20
-98.3158523106616
 30
0.0
 11
214.4916577084238
 21
-116.3158523106616
 31
0.0
  0
LINE
  5
337
330
1F
100
AcDbEntity
  8
0
  6
CONTINUOUS
 62
     3
100
AcDbLine
 10
214.4916577084238
 20
-98.3158523106616
 30
0.0
 11
226.4916577084243
 21
-98.3158523106616
 31
0.0
  0
LINE
  5
338
330
1F
100
AcDbEntity
  8
0
  6
CONTINUOUS
 62
     3
100
AcDbLine
 10
214.4916577084238
 20
-116.3158523106616
 30
0.0
 11
226.4916577084235
 21
-116.3158523106612
 31
0.0
  0
LINE
  5
339
330
1F
100
AcDbEntity
  8
0
  6
CONTINUOUS
 62
     3
100
AcDbLine
 10
208.9916577084238
 20
-100.0658523106616
 30
0.0
 11
214.4916577084238
 21
-100.0658523106616
 31
0.0
  0
LINE
  5
33A
330
1F
100
AcDbEntity
  8
0
  6
CONTINUOUS
 62
     3
100
AcDbLine
 10
208.9916577084238
 20
-114.5658523106616
 30
0.0
 11
214.4916577084238
 21
-114.5658523106616
 31
0.0
  0
LINE
  5
33B
330
1F
100
AcDbEntity
  8
0
  6
CONTINUOUS
 62
     3
100
AcDbLine
 10
178.9916577084236
 20
-97.8158523106616
 30
0.0
 11
203.4916577084238
 21
-97.81585231066163
 31
0.0
  0
LINE
  5
33C
330
1F
100
AcDbEntity
  8
0
  6
CONTINUOUS
 62
     3
100
AcDbLine
 10
178.9916577084236
 20
-116.8158523106616
 30
0.0
 11
203.4916577084239
 21
-116.8158523106616
 31
0.0
  0
LINE
  5
33D
330
1F
100
AcDbEntity
  8
0
  6
CONTINUOUS
 62
     3
100
AcDbLine
 10
226.4916577084235
 20
-116.3158523106612
 30
0.0
 11
226.4916577084243
 21
-98.3158523106616
 31
0.0
  0
LINE
  5
33E
330
1F
100
AcDbEntity
  8
0
  6
CONTINUOUS
 62
     3
100
AcDbLine
 10
208.991657708424
 20
258.3855749863945
 30
0.0
 11
208.991657708424
 21
240.3855749863945
 31
0.0
  0
LINE
  5
33F
330
1F
100
AcDbEntity
  8
0
  6
CONTINUOUS
 62
     3
100
AcDbLine
 10
208.991657708424
 20
258.3855749863945
 30
0.0
 11
203.991657708424
 21
258.3855749863945
 31
0.0
  0
LINE
  5
340
330
1F
100
AcDbEntity
  8
0
  6
CONTINUOUS
 62
     3
100
AcDbLine
 10
208.991657708424
 20
240.3855749863945
 30
0.0
 11
203.991657708424
 21
240.3855749863945
 31
0.0
  0
LINE
  5
341
330
1F
100
AcDbEntity
  8
0
  6
CONTINUOUS
 62
     3
100
AcDbLine
 10
227.4916577084242
 20
257.3855749863944
 30
0.0
 11
227.4916577084242
 21
241.3855749863946
 31
0.0
  0
LINE
  5
342
330
1F
100
AcDbEntity
  8
0
  6
CONTINUOUS
 62
     3
100
AcDbLine
 10
227.4916577084242
 20
241.3855749863946
 30
0.0
 11
226.491657708424
 21
240.3855749863944
 31
0.0
  0
LINE
  5
343
330
1F
100
AcDbEntity
  8
0
  6
CONTINUOUS
 62
     3
100
AcDbLine
 10
227.4916577084242
 20
257.3855749863944
 30
0.0
 11
226.4916577084243
 21
258.3855749863944
 31
0.0
  0
LINE
  5
344
330
1F
100
AcDbEntity
  8
0
  6
CONTINUOUS
 62
     3
100
AcDbLine
 10
214.4916577084242
 20
258.3855749863945
 30
0.0
 11
214.4916577084242
 21
240.3855749863945
 31
0.0
  0
LINE
  5
345
330
1F
100
AcDbEntity
  8
0
  6
CONTINUOUS
 62
     3
100
AcDbLine
 10
214.4916577084242
 20
258.3855749863945
 30
0.0
 11
226.4916577084243
 21
258.3855749863944
 31
0.0
  0
LINE
  5
346
330
1F
100
AcDbEntity
  8
0
  6
CONTINUOUS
 62
     3
100
AcDbLine
 10
214.4916577084242
 20
240.3855749863945
 30
0.0
 11
226.491657708424
 21
240.3855749863944
 31
0.0
  0
LINE
  5
347
330
1F
100
AcDbEntity
  8
0
  6
CONTINUOUS
 62
     3
100
AcDbLine
 10
208.991657708424
 20
256.6355749863945
 30
0.0
 11
214.4916577084239
 21
256.6355749863945
 31
0.0
  0
LINE
  5
348
330
1F
100
AcDbEntity
  8
0
  6
CONTINUOUS
 62
     3
100
AcDbLine
 10
208.991657708424
 20
242.1355749863945
 30
0.0
 11
214.4916577084239
 21
242.1355749863945
 31
0.0
  0
LINE
  5
349
330
1F
100
AcDbEntity
  8
0
  6
CONTINUOUS
 62
     3
100
AcDbLine
 10
226.491657708424
 20
240.3855749863944
 30
0.0
 11
226.4916577084243
 21
258.3855749863944
 31
0.0
  0
LINE
  5
34A
330
1F
100
AcDbEntity
  8
0
  6
CONTINUOUS
 62
     3
100
AcDbLine
 10
590.9916577084239
 20
-123.3158523106596
 30
0.0
 11
590.9916577084243
 21
-94.47440219600549
 31
0.0
  0
LINE
  5
34B
330
1F
100
AcDbEntity
  8
0
  6
CONTINUOUS
 62
     3
100
AcDbLine
 10
423.991657708424
 20
-123.3158523106623
 30
0.0
 11
423.9916577084239
 21
-94.47440219600577
 31
0.0
  0
LINE
  5
34C
330
1F
100
AcDbEntity
  8
0
  6
CONTINUOUS
 62
     3
100
AcDbLine
 10
433.9916577084241
 20
-127.3158523106616
 30
0.0
 11
433.9916577084241
 21
-92.68662822454797
 31
0.0
  0
CIRCLE
  5
34D
330
1F
100
AcDbEntity
  8
0
  6
CONTINUOUS
 62
     3
100
AcDbCircle
 10
507.4916577084242
 20
-107.3158523106616
 30
0.0
 40
23.5
  0
CIRCLE
  5
34E
330
1F
100
AcDbEntity
  8
0
  6
CONTINUOUS
 62
     3
100
AcDbCircle
 10
507.4916577084242
 20
-107.3158523106616
 30
0.0
 40
17.5
  0
LINE
  5
34F
330
1F
100
AcDbEntity
  8
0
  6
CONTINUOUS
 62
     3
100
AcDbLine
 10
574.6104577084243
 20
-107.3158523106616
 30
0.0
 11
572.3010577084242
 21
-103.3158541756621
 31
0.0
  0
LINE
  5
350
330
1F
100
AcDbEntity
  8
0
  6
CONTINUOUS
 62
     3
100
AcDbLine
 10
572.3010577084242
 20
-103.3158541756621
 30
0.0
 11
567.6822577084242
 21
-103.3158541756621
 31
0.0
  0
LINE
  5
351
330
1F
100
AcDbEntity
  8
0
  6
CONTINUOUS
 62
     3
100
AcDbLine
 10
567.6822577084242
 20
-103.3158541756621
 30
0.0
 11
565.3728577084241
 21
-107.3158523106616
 31
0.0
  0
LINE
  5
352
330
1F
100
AcDbEntity
  8
0
  6
CONTINUOUS
 62
     3
100
AcDbLine
 10
565.3728577084241
 20
-107.3158523106616
 30
0.0
 11
567.6822577084242
 21
-111.3158504456613
 31
0.0
  0
LINE
  5
353
330
1F
100
AcDbEntity
  8
0
  6
CONTINUOUS
 62
     3
100
AcDbLine
 10
567.6822577084242
 20
-111.3158504456613
 30
0.0
 11
572.3010577084242
 21
-111.3158504456613
 31
0.0
  0
LINE
  5
354
330
1F
100
AcDbEntity
  8
0
  6
CONTINUOUS
 62
     3
100
AcDbLine
 10
572.3010577084242
 20
-111.3158504456613
 30
0.0
 11
574.6104577084243
 21
-107.3158523106616
 31
0.0
  0
CIRCLE
  5
355
330
1F
100
AcDbEntity
  8
0
  6
CONTINUOUS
 62
     3
100
AcDbCircle
 10
569.9916577084241
 20
-107.3158523106616
 30
0.0
 40
8.0
  0
CIRCLE
  5
356
330
1F
100
AcDbEntity
  8
0
  6
CONTINUOUS
 62
     3
100
AcDbCircle
 10
569.9916577084241
 20
-107.3158523106616
 30
0.0
 40
6.960769030917121
  0
LINE
  5
357
330
1F
100
AcDbEntity
  8
0
  6
CONTINUOUS
 62
     3
100
AcDbLine
 10
449.6104577084242
 20
-107.3158523106617
 30
0.0
 11
447.3010577084241
 21
-103.3158541756622
 31
0.0
  0
LINE
  5
358
330
1F
100
AcDbEntity
  8
0
  6
CONTINUOUS
 62
     3
100
AcDbLine
 10
447.3010577084241
 20
-103.3158541756622
 30
0.0
 11
442.6822577084242
 21
-103.3158541756622
 31
0.0
  0
LINE
  5
359
330
1F
100
AcDbEntity
  8
0
  6
CONTINUOUS
 62
     3
100
AcDbLine
 10
442.6822577084242
 20
-103.3158541756622
 30
0.0
 11
440.3728577084241
 21
-107.3158523106617
 31
0.0
  0
LINE
  5
35A
330
1F
100
AcDbEntity
  8
0
  6
CONTINUOUS
 62
     3
100
AcDbLine
 10
440.3728577084241
 20
-107.3158523106617
 30
0.0
 11
442.6822577084242
 21
-111.3158504456614
 31
0.0
  0
LINE
  5
35B
330
1F
100
AcDbEntity
  8
0
  6
CONTINUOUS
 62
     3
100
AcDbLine
 10
442.6822577084242
 20
-111.3158504456614
 30
0.0
 11
447.3010577084241
 21
-111.3158504456614
 31
0.0
  0
LINE
  5
35C
330
1F
100
AcDbEntity
  8
0
  6
CONTINUOUS
 62
     3
100
AcDbLine
 10
447.3010577084241
 20
-111.3158504456614
 30
0.0
 11
449.6104577084242
 21
-107.3158523106617
 31
0.0
  0
CIRCLE
  5
35D
330
1F
100
AcDbEntity
  8
0
  6
CONTINUOUS
 62
     3
100
AcDbCircle
 10
444.9916577084242
 20
-107.3158523106617
 30
0.0
 40
8.0
  0
CIRCLE
  5
35E
330
1F
100
AcDbEntity
  8
0
  6
CONTINUOUS
 62
     3
100
AcDbCircle
 10
444.9916577084242
 20
-107.3158523106617
 30
0.0
 40
6.960769030917121
  0
CIRCLE
  5
35F
330
1F
100
AcDbEntity
  8
0
  6
CONTINUOUS
 62
     3
100
AcDbCircle
 10
569.9916577084241
 20
-91.31585231066163
 30
0.0
 40
4.0
  0
CIRCLE
  5
360
330
1F
100
AcDbEntity
  8
0
  6
CONTINUOUS
 62
     3
100
AcDbCircle
 10
444.9916577084242
 20
-91.31585231066168
 30
0.0
 40
4.0
  0
ARC
  5
361
330
1F
100
AcDbEntity
  8
0
  6
CONTINUOUS
 62
     3
100
AcDbCircle
 10
507.4916577084242
 20
-107.3158523106616
 30
0.0
 40
33.0
100
AcDbArc
 50
219.2680260017534
 51
320.7319739982464
  0
LINE
  5
362
330
1F
100
AcDbEntity
  8
0
  6
CONTINUOUS
 62
     3
100
AcDbLine
 10
472.9916577084242
 20
-126.8158523106617
 30
0.0
 11
472.9916577084242
 21
-123.8158523106617
 31
0.0
  0
LINE
  5
363
330
1F
100
AcDbEntity
  8
0
  6
CONTINUOUS
 62
     3
100
AcDbLine
 10
541.9916577084241
 20
-126.8158523106616
 30
0.0
 11
580.9916577084241
 21
-126.8158523106616
 31
0.0
  0
LINE
  5
364
330
1F
100
AcDbEntity
  8
0
  6
CONTINUOUS
 62
     3
100
AcDbLine
 10
472.9916577084242
 20
-126.8158523106617
 30
0.0
 11
433.9916577084242
 21
-126.8158523106617
 31
0.0
  0
LINE
  5
365
330
1F
100
AcDbEntity
  8
0
  6
CONTINUOUS
 62
     3
100
AcDbLine
 10
466.9916577084242
 20
-123.8158523106617
 30
0.0
 11
479.4916577084242
 21
-123.8158523106617
 31
0.0
  0
LINE
  5
366
330
1F
100
AcDbEntity
  8
0
  6
CONTINUOUS
 62
     3
100
AcDbLine
 10
481.4916577084242
 20
-126.9372691810103
 30
0.0
 11
481.4916577084242
 21
-125.8158523106616
 31
0.0
  0
LINE
  5
367
330
1F
100
AcDbEntity
  8
0
  6
CONTINUOUS
 62
     3
100
AcDbLine
 10
464.9916577084242
 20
-106.8158523106617
 30
0.0
 11
464.9916577084242
 21
-126.8158523106617
 31
0.0
  0
LINE
  5
368
330
1F
100
AcDbEntity
  8
0
  6
CONTINUOUS
 62
     3
100
AcDbLine
 10
549.9916577084241
 20
-106.8158523106616
 30
0.0
 11
549.9916577084241
 21
-126.8158523106616
 31
0.0
  0
LINE
  5
369
330
1F
100
AcDbEntity
  8
0
  6
CONTINUOUS
 62
     3
100
AcDbLine
 10
498.4916577084242
 20
-73.31585231066163
 30
0.0
 11
516.4916577084241
 21
-73.31585231066163
 31
0.0
  0
ARC
  5
36A
330
1F
100
AcDbEntity
  8
0
  6
CONTINUOUS
 62
     3
100
AcDbCircle
 10
498.4916577084243
 20
-106.8158523106616
 30
0.0
 40
33.5
100
AcDbArc
 50
90.00000000000003
 51
179.9999999999999
  0
ARC
  5
36B
330
1F
100
AcDbEntity
  8
0
  6
CONTINUOUS
 62
     3
100
AcDbCircle
 10
516.4916577084241
 20
-106.8158523106616
 30
0.0
 40
33.5
100
AcDbArc
 50
0.0000000000000127
 51
90.0
  0
LINE
  5
36C
330
1F
100
AcDbEntity
  8
0
  6
CONTINUOUS
 62
     3
100
AcDbLine
 10
580.9916577084243
 20
-127.3158523106611
 30
0.0
 11
580.9916577084241
 21
-92.68662822454786
 31
0.0
  0
LINE
  5
36D
330
1F
100
AcDbEntity
  8
0
  6
CONTINUOUS
 62
     3
100
AcDbLine
 10
432.2317864751911
 20
-84.63047750905088
 30
0.0
 11
492.5960890770944
 21
-73.83870460936294
 31
0.0
  0
ARC
  5
36E
330
1F
100
AcDbEntity
  8
0
  6
CONTINUOUS
 62
     3
100
AcDbCircle
 10
433.9916577084239
 20
-94.47440219600577
 30
0.0
 40
10.0
100
AcDbArc
 50
100.136107695014
 51
179.9999999999999
  0
ARC
  5
36F
330
1F
100
AcDbEntity
  8
0
  6
CONTINUOUS
 62
     3
100
AcDbCircle
 10
443.9916577084242
 20
-92.68662822454797
 30
0.0
 40
10.0
100
AcDbArc
 50
100.136107695014
 51
179.9999999999999
  0
LINE
  5
370
330
1F
100
AcDbEntity
  8
0
  6
CONTINUOUS
 62
     3
100
AcDbLine
 10
582.7515289416572
 20
-84.63047750905059
 30
0.0
 11
522.3872263397541
 21
-73.83870460936294
 31
0.0
  0
ARC
  5
371
330
1F
100
AcDbEntity
  8
0
  6
CONTINUOUS
 62
     3
100
AcDbCircle
 10
580.9916577084243
 20
-94.47440219600549
 30
0.0
 40
10.0
100
AcDbArc
 50
360.0
 51
439.8638923049862
  0
ARC
  5
372
330
1F
100
AcDbEntity
  8
0
  6
CONTINUOUS
 62
     3
100
AcDbCircle
 10
570.9916577084241
 20
-92.68662822454786
 30
0.0
 40
10.0
100
AcDbArc
 50
0.0000000000000127
 51
79.86389230498605
  0
ARC
  5
373
330
1F
100
AcDbEntity
  8
0
  6
CONTINUOUS
 62
     3
100
AcDbCircle
 10
594.9916577084239
 20
-123.3158523106596
 30
0.0
 40
4.0
100
AcDbArc
 50
179.9999999999999
 51
269.9999999999999
  0
ARC
  5
374
330
1F
100
AcDbEntity
  8
0
  6
CONTINUOUS
 62
     3
100
AcDbCircle
 10
419.991657708424
 20
-123.3158523106623
 30
0.0
 40
4.0
100
AcDbArc
 50
269.9999999999999
 51
360.0
  0
LINE
  5
375
330
1F
100
AcDbEntity
  8
0
  6
CONTINUOUS
 62
     3
100
AcDbLine
 10
419.991657708424
 20
-163.3158523106616
 30
0.0
 11
451.991657708424
 21
-163.3158523106616
 31
0.0
  0
LINE
  5
376
330
1F
100
AcDbEntity
  8
0
  6
CONTINUOUS
 62
     3
100
AcDbLine
 10
451.991657708424
 20
-163.3158523106616
 30
0.0
 11
451.991657708424
 21
-147.3158523106616
 31
0.0
  0
LINE
  5
377
330
1F
100
AcDbEntity
  8
0
  6
CONTINUOUS
 62
     3
100
AcDbLine
 10
594.9916577084241
 20
-163.3158523106615
 30
0.0
 11
562.9916577084241
 21
-163.3158523106615
 31
0.0
  0
LINE
  5
378
330
1F
100
AcDbEntity
  8
0
  6
CONTINUOUS
 62
     3
100
AcDbLine
 10
562.9916577084241
 20
-163.3158523106615
 30
0.0
 11
562.9916577084241
 21
-147.3158523106616
 31
0.0
  0
ARC
  5
379
330
1F
100
AcDbEntity
  8
0
  6
CONTINUOUS
 62
     3
100
AcDbCircle
 10
-290.5083422915755
 20
-192.3158523106616
 30
0.0
 40
2.0
100
AcDbArc
 50
90.0
 51
179.9999999999918
  0
LINE
  5
37A
330
1F
100
AcDbEntity
  8
0
  6
CONTINUOUS
 62
     3
100
AcDbLine
 10
537.591657708424
 20
-185.3158523106616
 30
0.0
 11
530.591657708424
 21
-192.3158523106616
 31
0.0
  0
LINE
  5
37B
330
1F
100
AcDbEntity
  8
0
  6
CONTINUOUS
 62
     3
100
AcDbLine
 10
477.391657708424
 20
-185.3158523106616
 30
0.0
 11
484.391657708424
 21
-192.3158523106616
 31
0.0
  0
LINE
  5
37C
330
1F
100
AcDbEntity
  8
0
  6
CONTINUOUS
 62
     3
100
AcDbLine
 10
534.4916577084241
 20
-124.0838015030927
 30
0.0
 11
534.4916577084241
 21
-172.3158523106616
 31
0.0
  0
ARC
  5
37D
330
1F
100
AcDbEntity
  8
0
  6
CONTINUOUS
 62
     3
100
AcDbCircle
 10
537.4916577084241
 20
-172.3158523106616
 30
0.0
 40
3.0
100
AcDbArc
 50
180.0
 51
270.0
  0
LINE
  5
37E
330
1F
100
AcDbEntity
  8
0
  6
CONTINUOUS
 62
     3
100
AcDbLine
 10
480.491657708424
 20
-124.0838015030927
 30
0.0
 11
480.491657708424
 21
-172.3158523106616
 31
0.0
  0
ARC
  5
37F
330
1F
100
AcDbEntity
  8
0
  6
CONTINUOUS
 62
     3
100
AcDbCircle
 10
477.491657708424
 20
-172.3158523106616
 30
0.0
 40
3.0
100
AcDbArc
 50
270.0000000000001
 51
360.0000000000001
  0
ARC
  5
380
330
1F
100
AcDbEntity
  8
0
  6
CONTINUOUS
 62
     3
100
AcDbCircle
 10
466.9916577084242
 20
-121.8158523106617
 30
0.0
 40
2.0
100
AcDbArc
 50
180.0
 51
270.0
  0
ARC
  5
381
330
1F
100
AcDbEntity
  8
0
  6
CONTINUOUS
 62
     3
100
AcDbCircle
 10
479.4916577084242
 20
-125.8158523106617
 30
0.0
 40
2.0
100
AcDbArc
 50
0.000000000001632
 51
90.00000000000001
  0
ARC
  5
382
330
1F
100
AcDbEntity
  8
0
  6
CONTINUOUS
 62
     3
100
AcDbCircle
 10
483.4916577084242
 20
-126.9372691810102
 30
0.0
 40
2.0
100
AcDbArc
 50
180.0000000000016
 51
219.2680260017535
  0
LINE
  5
383
330
1F
100
AcDbEntity
  8
0
  6
CONTINUOUS
 62
     3
100
AcDbLine
 10
541.9916577084239
 20
-126.8158523106616
 30
0.0
 11
541.9916577084239
 21
-123.8158523106616
 31
0.0
  0
LINE
  5
384
330
1F
100
AcDbEntity
  8
0
  6
CONTINUOUS
 62
     3
100
AcDbLine
 10
547.9916577084239
 20
-123.8158523106616
 30
0.0
 11
535.4916577084239
 21
-123.8158523106616
 31
0.0
  0
LINE
  5
385
330
1F
100
AcDbEntity
  8
0
  6
CONTINUOUS
 62
     3
100
AcDbLine
 10
533.4916577084239
 20
-126.9372691810103
 30
0.0
 11
533.4916577084239
 21
-125.8158523106616
 31
0.0
  0
ARC
  5
386
330
1F
100
AcDbEntity
  8
0
  6
CONTINUOUS
 62
     3
100
AcDbCircle
 10
547.9916577084239
 20
-121.8158523106616
 30
0.0
 40
2.0
100
AcDbArc
 50
270.0000000000001
 51
360.0000000000001
  0
ARC
  5
387
330
1F
100
AcDbEntity
  8
0
  6
CONTINUOUS
 62
     3
100
AcDbCircle
 10
535.4916577084239
 20
-125.8158523106616
 30
0.0
 40
2.0
100
AcDbArc
 50
90.00000000000006
 51
179.9999999999984
  0
ARC
  5
388
330
1F
100
AcDbEntity
  8
0
  6
CONTINUOUS
 62
     3
100
AcDbCircle
 10
531.4916577084239
 20
-126.9372691810102
 30
0.0
 40
2.0
100
AcDbArc
 50
320.7319739982465
 51
359.9999999999984
  0
LINE
  5
389
330
1F
100
AcDbEntity
  8
0
  6
CONTINUOUS
 62
     3
100
AcDbLine
 10
-352.0083422915758
 20
-187.3158523106616
 30
0.0
 11
-352.0083422915758
 21
-217.3158523106616
 31
0.0
  0
LINE
  5
38A
330
1F
100
AcDbEntity
  8
0
  6
CONTINUOUS
 62
     3
100
AcDbLine
 10
-333.0083422915758
 20
-187.3158523106616
 30
0.0
 11
-333.0083422915758
 21
-217.3158523106616
 31
0.0
  0
LINE
  5
38B
330
1F
100
AcDbEntity
  8
0
  6
CONTINUOUS
 62
     3
100
AcDbLine
 10
409.9916577084241
 20
-225.3158523106604
 30
0.0
 11
409.9916577084241
 21
-217.3158523106611
 31
0.0
  0
LINE
  5
38C
330
1F
100
AcDbEntity
  8
0
  6
CONTINUOUS
 62
     3
100
AcDbLine
 10
434.9916577084241
 20
-217.3158523106618
 30
0.0
 11
434.9916577084241
 21
-225.3158523106604
 31
0.0
  0
LINE
  5
38D
330
1F
100
AcDbEntity
  8
0
  6
CONTINUOUS
 62
     3
100
AcDbLine
 10
409.9916577084241
 20
-225.3158523106604
 30
0.0
 11
434.9916577084241
 21
-225.3158523106604
 31
0.0
  0
LINE
  5
38E
330
1F
100
AcDbEntity
  8
0
  6
CONTINUOUS
 62
     3
100
AcDbLine
 10
604.991657708424
 20
-225.3158523106604
 30
0.0
 11
604.991657708424
 21
-217.3158523106611
 31
0.0
  0
LINE
  5
38F
330
1F
100
AcDbEntity
  8
0
  6
CONTINUOUS
 62
     3
100
AcDbLine
 10
579.991657708424
 20
-217.3158523106618
 30
0.0
 11
579.991657708424
 21
-225.3158523106604
 31
0.0
  0
LINE
  5
390
330
1F
100
AcDbEntity
  8
0
  6
CONTINUOUS
 62
     3
100
AcDbLine
 10
604.991657708424
 20
-225.3158523106604
 30
0.0
 11
579.991657708424
 21
-225.3158523106604
 31
0.0
  0
LINE
  5
391
330
1F
100
AcDbEntity
  8
0
  6
CONTINUOUS
 62
     3
100
AcDbLine
 10
77.4916577084241
 20
291.8855749863945
 30
0.0
 11
77.4916577084241
 21
319.3855749863947
 31
0.0
  0
LINE
  5
392
330
1F
100
AcDbEntity
  8
0
  6
CONTINUOUS
 62
     3
100
AcDbLine
 10
69.4916577084241
 20
319.3855749863947
 30
0.0
 11
69.4916577084241
 21
291.8855749863945
 31
0.0
  0
LINE
  5
393
330
1F
100
AcDbEntity
  8
0
  6
CONTINUOUS
 62
     3
100
AcDbLine
 10
69.4916577084241
 20
206.8855749863945
 30
0.0
 11
69.4916577084241
 21
179.3855749863947
 31
0.0
  0
LINE
  5
394
330
1F
100
AcDbEntity
  8
0
  6
CONTINUOUS
 62
     3
100
AcDbLine
 10
77.4916577084241
 20
179.3855749863947
 30
0.0
 11
77.4916577084241
 21
206.8855749863945
 31
0.0
  0
LINE
  5
395
330
1F
100
AcDbEntity
  8
0
  6
CONTINUOUS
 62
     3
100
AcDbLine
 10
52.49165770842419
 20
-127.3158523106617
 30
0.0
 11
33.49165770842404
 21
-127.3158523106617
 31
0.0
  0
LINE
  5
396
330
1F
100
AcDbEntity
  8
0
  6
CONTINUOUS
 62
     3
100
AcDbLine
 10
-171.508342291576
 20
-127.3158523106617
 30
0.0
 11
-449.5083422915759
 21
-127.3158523106616
 31
0.0
  0
LINE
  5
397
330
1F
100
AcDbEntity
  8
0
  6
CONTINUOUS
 62
     3
100
AcDbLine
 10
203.991657708424
 20
258.3855749863945
 30
0.0
 11
203.991657708424
 21
240.3855749863945
 31
0.0
  0
LINE
  5
398
330
1F
100
AcDbEntity
  8
0
  6
CONTINUOUS
 62
     3
100
AcDbLine
 10
203.991657708424
 20
240.3855749863945
 30
0.0
 11
202.491657708424
 21
238.8855749863945
 31
0.0
  0
LINE
  5
399
330
1F
100
AcDbEntity
  8
0
  6
CONTINUOUS
 62
     3
100
AcDbLine
 10
202.491657708424
 20
259.8855749863945
 30
0.0
 11
203.991657708424
 21
258.3855749863945
 31
0.0
  0
LINE
  5
39A
330
1F
100
AcDbEntity
  8
0
  6
CONTINUOUS
 62
     3
100
AcDbLine
 10
202.491657708424
 20
255.3767398043174
 30
0.0
 11
202.491657708424
 21
253.8577203505486
 31
0.0
  0
LINE
  5
39B
330
1F
100
AcDbEntity
  8
0
  6
CONTINUOUS
 62
     3
100
AcDbLine
 10
202.491657708424
 20
243.3944101684716
 30
0.0
 11
202.491657708424
 21
244.9134296222404
 31
0.0
  0
LINE
  5
39C
330
1F
100
AcDbEntity
  8
0
  6
CONTINUOUS
 62
     3
100
AcDbLine
 10
178.9916577084242
 20
259.8855749863945
 30
0.0
 11
202.491657708424
 21
259.8855749863945
 31
0.0
  0
LINE
  5
39D
330
1F
100
AcDbEntity
  8
0
  6
CONTINUOUS
 62
     3
100
AcDbLine
 10
178.9916577084242
 20
238.8855749863945
 30
0.0
 11
202.491657708424
 21
238.8855749863945
 31
0.0
  0
LINE
  5
39E
330
1F
100
AcDbEntity
  8
0
  6
CONTINUOUS
 62
     3
100
AcDbLine
 10
202.491657708424
 20
243.3944101684716
 30
0.0
 11
178.9916577084242
 21
243.3944101684716
 31
0.0
  0
LINE
  5
39F
330
1F
100
AcDbEntity
  8
0
  6
CONTINUOUS
 62
     3
100
AcDbLine
 10
202.491657708424
 20
244.9134296222404
 30
0.0
 11
178.9916577084242
 21
244.9134296222404
 31
0.0
  0
LINE
  5
3A0
330
1F
100
AcDbEntity
  8
0
  6
CONTINUOUS
 62
     3
100
AcDbLine
 10
202.491657708424
 20
253.8577203505486
 30
0.0
 11
178.9916577084242
 21
253.8577203505486
 31
0.0
  0
LINE
  5
3A1
330
1F
100
AcDbEntity
  8
0
  6
CONTINUOUS
 62
     3
100
AcDbLine
 10
178.9916577084242
 20
255.3767398043175
 30
0.0
 11
202.491657708424
 21
255.3767398043175
 31
0.0
  0
LINE
  5
3A2
330
1F
100
AcDbEntity
  8
0
  6
CONTINUOUS
 62
     3
100
AcDbLine
 10
178.9916577084242
 20
259.8855749863945
 30
0.0
 11
178.9916577084242
 21
238.8855749863945
 31
0.0
  0
LINE
  5
3A3
330
1F
100
AcDbEntity
  8
0
  6
CONTINUOUS
 62
     3
100
AcDbLine
 10
178.9916577084241
 20
238.8855749863945
 30
0.0
 11
176.3935814970705
 21
238.3855749863946
 31
0.0
  0
LINE
  5
3A4
330
1F
100
AcDbEntity
  8
0
  6
CONTINUOUS
 62
     3
100
AcDbLine
 10
176.3935814970705
 20
238.3855749863946
 30
0.0
 11
176.3935814970705
 21
260.3855749863945
 31
0.0
  0
LINE
  5
3A5
330
1F
100
AcDbEntity
  8
0
  6
CONTINUOUS
 62
     3
100
AcDbLine
 10
176.3935814970705
 20
260.3855749863945
 30
0.0
 11
178.9916577084242
 21
259.8855749863945
 31
0.0
  0
LINE
  5
3A6
330
1F
100
AcDbEntity
  8
0
  6
CONTINUOUS
 62
     3
100
AcDbLine
 10
517.9549678905012
 20
-106.4388460201239
 30
0.0
 11
513.482822526347
 21
-98.69286303057541
 31
0.0
  0
LINE
  5
3A7
330
1F
100
AcDbEntity
  8
0
  6
CONTINUOUS
 62
     3
100
AcDbLine
 10
511.9638030725782
 20
-97.8158567400377
 30
0.0
 11
503.0195123442701
 21
-97.8158567400377
 31
0.0
  0
LINE
  5
3A8
330
1F
100
AcDbEntity
  8
0
  6
CONTINUOUS
 62
     3
100
AcDbLine
 10
501.5004928905013
 20
-98.69286303057541
 30
0.0
 11
497.0283475263472
 21
-106.4388460201239
 31
0.0
  0
LINE
  5
3A9
330
1F
100
AcDbEntity
  8
0
  6
CONTINUOUS
 62
     3
100
AcDbLine
 10
497.0283475263472
 20
-108.1928586011993
 30
0.0
 11
501.5004928905012
 21
-115.9388415907478
 31
0.0
  0
LINE
  5
3AA
330
1F
100
AcDbEntity
  8
0
  6
CONTINUOUS
 62
     3
100
AcDbLine
 10
503.0195123442701
 20
-116.8158478812856
 30
0.0
 11
511.9638030725782
 21
-116.8158478812856
 31
0.0
  0
LINE
  5
3AB
330
1F
100
AcDbEntity
  8
0
  6
CONTINUOUS
 62
     3
100
AcDbLine
 10
513.482822526347
 20
-115.9388415907479
 30
0.0
 11
517.9549678905012
 21
-108.1928586011994
 31
0.0
  0
ARC
  5
3AC
330
1F
100
AcDbEntity
  8
0
  6
CONTINUOUS
 62
     3
100
AcDbCircle
 10
507.4916577084242
 20
-107.3158523106616
 30
0.0
 40
10.49999999999996
100
AcDbArc
 50
175.2088220446498
 51
184.7911779553501
  0
ARC
  5
3AD
330
1F
100
AcDbEntity
  8
0
  6
CONTINUOUS
 62
     3
100
AcDbCircle
 10
507.4916577084242
 20
-107.3158523106616
 30
0.0
 40
10.49999999999996
100
AcDbArc
 50
235.2088220446497
 51
244.7911779553501
  0
ARC
  5
3AE
330
1F
100
AcDbEntity
  8
0
  6
CONTINUOUS
 62
     3
100
AcDbCircle
 10
507.4916577084242
 20
-107.3158523106616
 30
0.0
 40
10.49999999999996
100
AcDbArc
 50
295.2088220446497
 51
304.7911779553501
  0
ARC
  5
3AF
330
1F
100
AcDbEntity
  8
0
  6
CONTINUOUS
 62
     3
100
AcDbCircle
 10
507.4916577084242
 20
-107.3158523106616
 30
0.0
 40
10.49999999999996
100
AcDbArc
 50
355.2088220446498
 51
364.7911779553502
  0
ARC
  5
3B0
330
1F
100
AcDbEntity
  8
0
  6
CONTINUOUS
 62
     3
100
AcDbCircle
 10
507.4916577084242
 20
-107.3158523106616
 30
0.0
 40
10.49999999999996
100
AcDbArc
 50
55.2088220446498
 51
64.79117795535017
  0
ARC
  5
3B1
330
1F
100
AcDbEntity
  8
0
  6
CONTINUOUS
 62
     3
100
AcDbCircle
 10
507.4916577084242
 20
-107.3158523106616
 30
0.0
 40
10.49999999999996
100
AcDbArc
 50
115.2088220446498
 51
124.7911779553502
  0
CIRCLE
  5
3B2
330
1F
100
AcDbEntity
  8
0
  6
CONTINUOUS
 62
     3
100
AcDbCircle
 10
507.4916577084242
 20
-107.3158523106616
 30
0.0
 40
8.99999999999997
  0
LINE
  5
3B3
330
1F
100
AcDbEntity
  8
0
  6
CONTINUOUS
 62
     3
100
AcDbLine
 10
178.9916577084239
 20
-96.8158523106617
 30
0.0
 11
178.9916577084239
 21
-117.8158523106616
 31
0.0
  0
LINE
  5
3B4
330
1F
100
AcDbEntity
  8
0
  6
CONTINUOUS
 62
     3
100
AcDbLine
 10
178.9916577084239
 20
-117.8158523106616
 30
0.0
 11
176.3935814970703
 21
-118.3158523106616
 31
0.0
  0
LINE
  5
3B5
330
1F
100
AcDbEntity
  8
0
  6
CONTINUOUS
 62
     3
100
AcDbLine
 10
176.3935814970703
 20
-118.3158523106616
 30
0.0
 11
176.3935814970703
 21
-96.3158523106617
 31
0.0
  0
LINE
  5
3B6
330
1F
100
AcDbEntity
  8
0
  6
CONTINUOUS
 62
     3
100
AcDbLine
 10
176.3935814970703
 20
-96.3158523106617
 30
0.0
 11
178.9916577084239
 21
-96.8158523106617
 31
0.0
  0
LINE
  5
3B7
330
1F
100
AcDbEntity
  8
0
  6
CONTINUOUS
 62
     3
100
AcDbLine
 10
178.9916577084239
 20
-106.438846020124
 30
0.0
 11
202.4916577084238
 21
-106.438846020124
 31
0.0
  0
LINE
  5
3B8
330
1F
100
AcDbEntity
  8
0
  6
CONTINUOUS
 62
     3
100
AcDbLine
 10
178.9916577084239
 20
-108.1928586011994
 30
0.0
 11
202.4916577084238
 21
-108.1928586011994
 31
0.0
  0
LINE
  5
3B9
330
1F
100
AcDbEntity
  8
0
  6
CONTINUOUS
 62
     3
100
AcDbLine
 10
178.9916577084239
 20
-98.69286303057547
 30
0.0
 11
202.4916577084238
 21
-98.69286303057547
 31
0.0
  0
LINE
  5
3BA
330
1F
100
AcDbEntity
  8
0
  6
CONTINUOUS
 62
     3
100
AcDbLine
 10
178.9916577084239
 20
-115.9388415907479
 30
0.0
 11
202.4916577084238
 21
-115.9388415907479
 31
0.0
  0
LINE
  5
3BB
330
1F
100
AcDbEntity
  8
0
  6
CONTINUOUS
 62
     3
100
AcDbLine
 10
202.4916577084238
 20
-106.438846020124
 30
0.0
 11
202.4916577084238
 21
-108.1928586011994
 31
0.0
  0
LINE
  5
3BC
330
1F
100
AcDbEntity
  8
0
  6
CONTINUOUS
 62
     3
100
AcDbLine
 10
202.4916577084238
 20
-98.69286303057547
 30
0.0
 11
202.4916577084238
 21
-97.81585231066163
 31
0.0
  0
LINE
  5
3BD
330
1F
100
AcDbEntity
  8
0
  6
CONTINUOUS
 62
     3
100
AcDbLine
 10
202.4916577084238
 20
-115.9388415907479
 30
0.0
 11
202.4916577084238
 21
-116.8158523106616
 31
0.0
  0
LINE
  5
3BE
330
1F
100
AcDbEntity
  8
0
  6
CONTINUOUS
 62
     3
100
AcDbLine
 10
203.9916577084238
 20
-98.31585231066163
 30
0.0
 11
203.4916577084238
 21
-97.81585231066163
 31
0.0
  0
LINE
  5
3BF
330
1F
100
AcDbEntity
  8
0
  6
CONTINUOUS
 62
     3
100
AcDbLine
 10
203.9916577084238
 20
-116.3158523106617
 30
0.0
 11
203.4916577084239
 21
-116.8158523106616
 31
0.0
  0
ARC
  5
3C0
330
1F
100
AcDbEntity
  8
0
  6
CONTINUOUS
 62
     3
100
AcDbCircle
 10
195.4916261491272
 20
-102.5658545253497
 30
0.0
 40
8.000031559296657
100
AcDbArc
 50
331.0450339878353
 51
388.9549660121644
  0
ARC
  5
3C1
330
1F
100
AcDbEntity
  8
0
  6
CONTINUOUS
 62
     3
100
AcDbCircle
 10
195.4916261491272
 20
-112.0658500959737
 30
0.0
 40
8.000031559296657
100
AcDbArc
 50
331.0450339878356
 51
388.9549660121647
  0
ARC
  5
3C2
330
1F
100
AcDbEntity
  8
0
  6
CONTINUOUS
 62
     3
100
AcDbCircle
 10
200.450458371032
 20
257.631157395356
 30
0.0
 40
3.041199337392026
100
AcDbArc
 50
312.1583853430251
 51
407.8416146569749
  0
ARC
  5
3C3
330
1F
100
AcDbEntity
  8
0
  6
CONTINUOUS
 62
     3
100
AcDbCircle
 10
192.9916156293615
 20
249.3855749863945
 30
0.0
 40
10.50004207906252
100
AcDbArc
 50
334.7912860464572
 51
385.2087139535428
  0
ARC
  5
3C4
330
1F
100
AcDbEntity
  8
0
  6
CONTINUOUS
 62
     3
100
AcDbCircle
 10
200.450458371032
 20
241.1399925774331
 30
0.0
 40
3.041199337392026
100
AcDbArc
 50
312.1583853430251
 51
407.8416146569749
  0
LINE
  5
3C5
330
1F
100
AcDbEntity
  8
0
  6
CONTINUOUS
 62
     3
100
AcDbLine
 10
-392.105017485399
 20
-190.8158523106616
 30
0.0
 11
-408.6050174854
 21
-190.8158523106616
 31
0.0
  0
LINE
  5
3C6
330
1F
100
AcDbEntity
  8
0
  6
CONTINUOUS
 62
     3
100
AcDbLine
 10
-416.6050174854
 20
-190.8158523106616
 30
0.0
 11
-579.5083422915761
 21
-190.8158523106616
 31
0.0
  0
LINE
  5
3C7
330
1F
100
AcDbEntity
  8
0
  6
CENTER
 62
     2
100
AcDbLine
 10
-342.5083422915758
 20
124.3855749863945
 30
0.0
 11
-342.5083422915758
 21
374.3855749863946
 31
0.0
  0
LINE
  5
3C8
330
1F
100
AcDbEntity
  8
0
  6
CENTER
 62
     2
100
AcDbLine
 10
-342.5083422915758
 20
-211.3158523106617
 30
0.0
 11
-342.5083422915758
 21
-227.3158523106615
 31
0.0
  0
LINE
  5
3C9
330
1F
100
AcDbEntity
  8
0
  6
CENTER
 62
     2
100
AcDbLine
 10
-262.5083422915759
 20
-175.3158523106616
 30
0.0
 11
-252.5083422915759
 21
-175.3158523106616
 31
0.0
  0
LINE
  5
3CA
330
1F
100
AcDbEntity
  8
0
  6
CENTER
 62
     2
100
AcDbLine
 10
-257.5083422915759
 20
-180.3158523106616
 30
0.0
 11
-257.5083422915759
 21
-170.3158523106616
 31
0.0
  0
LINE
  5
3CB
330
1F
100
AcDbEntity
  8
0
  6
CENTER
 62
     2
100
AcDbLine
 10
-162.5083422915759
 20
-175.3158523106616
 30
0.0
 11
-152.5083422915759
 21
-175.3158523106616
 31
0.0
  0
LINE
  5
3CC
330
1F
100
AcDbEntity
  8
0
  6
CENTER
 62
     2
100
AcDbLine
 10
-157.5083422915759
 20
-180.3158523106616
 30
0.0
 11
-157.5083422915759
 21
-170.3158523106616
 31
0.0
  0
LINE
  5
3CD
330
1F
100
AcDbEntity
  8
0
  6
CENTER
 62
     2
100
AcDbLine
 10
-62.50834229157593
 20
-175.3158523106616
 30
0.0
 11
-52.50834229157593
 21
-175.3158523106616
 31
0.0
  0
LINE
  5
3CE
330
1F
100
AcDbEntity
  8
0
  6
CENTER
 62
     2
100
AcDbLine
 10
-57.50834229157593
 20
-180.3158523106616
 30
0.0
 11
-57.50834229157593
 21
-170.3158523106616
 31
0.0
  0
LINE
  5
3CF
330
1F
100
AcDbEntity
  8
0
  6
CENTER
 62
     2
100
AcDbLine
 10
507.491657708424
 20
-72.31585231066163
 30
0.0
 11
507.491657708424
 21
-217.3158523106615
 31
0.0
  0
LINE
  5
3D0
330
1F
100
AcDbEntity
  8
0
  6
CENTER
 62
     2
100
AcDbLine
 10
178.9916577084237
 20
-107.3158523106617
 30
0.0
 11
35.49165770842404
 21
-107.3158523106617
 31
0.0
  0
LINE
  5
3D1
330
1F
100
AcDbEntity
  8
0
  6
CENTER
 62
     2
100
AcDbLine
 10
203.9916577084238
 20
-107.3158523106617
 30
0.0
 11
227.4916577084238
 21
-107.3158523106617
 31
0.0
  0
LINE
  5
3D2
330
1F
100
AcDbEntity
  8
0
  6
CENTER
 62
     2
100
AcDbLine
 10
522.4916577084241
 20
-107.3158523106616
 30
0.0
 11
492.4916577084242
 21
-107.3158523106616
 31
0.0
  0
LINE
  5
3D3
330
1F
100
AcDbEntity
  8
0
  6
CENTER
 62
     2
100
AcDbLine
 10
597.1603175557459
 20
-175.3158523106615
 30
0.0
 11
421.2028707892005
 21
-175.3158523106615
 31
0.0
  0
LINE
  5
3D4
330
1F
100
AcDbEntity
  8
0
  6
CENTER
 62
     2
100
AcDbLine
 10
193.9916577084238
 20
-267.3158523106617
 30
0.0
 11
297.4916577084238
 21
-267.3158523106617
 31
0.0
  0
LINE
  5
3D5
330
1F
100
AcDbEntity
  8
0
  6
CENTER
 62
     2
100
AcDbLine
 10
-357.5083422915758
 20
359.3855749863946
 30
0.0
 11
-327.5083422915758
 21
359.3855749863946
 31
0.0
  0
LINE
  5
3D6
330
1F
100
AcDbEntity
  8
0
  6
CENTER
 62
     2
100
AcDbLine
 10
-357.5083422915758
 20
139.3855749863945
 30
0.0
 11
-327.5083422915758
 21
139.3855749863945
 31
0.0
  0
LINE
  5
3D7
330
1F
100
AcDbEntity
  8
0
  6
CENTER
 62
     2
100
AcDbLine
 10
227.4916577084242
 20
249.3855749863945
 30
0.0
 11
-208.9913065275773
 21
249.3855749863945
 31
0.0
  0
LINE
  5
3D8
330
1F
100
AcDbEntity
  8
0
  6
CENTER
 62
     2
100
AcDbLine
 10
-226.4911672656889
 20
249.3855749863945
 30
0.0
 11
-390.691517656446
 21
249.3855749863945
 31
0.0
  0
LINE
  5
3D9
330
1F
100
AcDbEntity
  8
0
  6
CENTER
 62
     2
100
AcDbLine
 10
-408.3375602258631
 20
249.3855749863945
 30
0.0
 11
-582.5083422915759
 21
249.3855749863945
 31
0.0
  0
LINE
  5
3DA
330
1F
100
AcDbEntity
  8
0
  6
CENTER
 62
     2
100
AcDbLine
 10
-163.0083422915759
 20
359.3855749863946
 30
0.0
 11
-255.7722755616609
 21
359.3855749863946
 31
0.0
  0
LINE
  5
3DB
330
1F
100
AcDbEntity
  8
0
  6
CENTER
 62
     2
100
AcDbLine
 10
-242.5083422915758
 20
372.6495082564797
 30
0.0
 11
-242.5083422915758
 21
346.1216417163095
 31
0.0
  0
LINE
  5
3DC
330
1F
100
AcDbEntity
  8
0
  6
CENTER
 62
     2
100
AcDbLine
 10
-172.5083422915759
 20
372.6495082564797
 30
0.0
 11
-172.5083422915759
 21
346.1216417163095
 31
0.0
  0
LINE
  5
3DD
330
1F
100
AcDbEntity
  8
0
  6
CENTER
 62
     2
100
AcDbLine
 10
-163.0083422915759
 20
139.3855749863945
 30
0.0
 11
-255.7722755616609
 21
139.3855749863945
 31
0.0
  0
LINE
  5
3DE
330
1F
100
AcDbEntity
  8
0
  6
CENTER
 62
     2
100
AcDbLine
 10
-242.5083422915758
 20
126.1216417163094
 30
0.0
 11
-242.5083422915758
 21
152.6495082564796
 31
0.0
  0
LINE
  5
3DF
330
1F
100
AcDbEntity
  8
0
  6
CENTER
 62
     2
100
AcDbLine
 10
-172.5083422915759
 20
126.1216417163094
 30
0.0
 11
-172.5083422915759
 21
152.6495082564796
 31
0.0
  0
LINE
  5
3E0
330
1F
100
AcDbEntity
  8
0
  6
CENTER
 62
     2
100
AcDbLine
 10
-562.5083422915759
 20
264.3855749863945
 30
0.0
 11
-562.5083422915759
 21
234.3855749863945
 31
0.0
  0
LINE
  5
3E1
330
1F
100
AcDbEntity
  8
0
  6
CENTER
 62
     2
100
AcDbLine
 10
-562.5083422915758
 20
-187.6567559276529
 30
0.0
 11
-562.5083422915758
 21
-221.2722024640331
 31
0.0
  0
LINE
  5
3E2
330
1F
100
AcDbEntity
  8
0
  6
CENTER
 62
     2
100
AcDbLine
 10
57.4916577084241
 20
-187.6567559276529
 30
0.0
 11
57.4916577084241
 21
-221.2722024640331
 31
0.0
  0
LINE
  5
3E3
330
1F
100
AcDbEntity
  8
0
  6
CENTER
 62
     2
100
AcDbLine
 10
456.4373327386263
 20
416.6465209634256
 30
0.0
 11
666.4373327386263
 21
416.6465209634256
 31
0.0
  0
LINE
  5
3E4
330
1F
100
AcDbEntity
  8
0
  6
CONTINUOUS
 62
     7
100
AcDbLine
 10
585.9916577084241
 20
-164.3158523106615
 30
0.0
 11
585.9916577084241
 21
-186.3158523106615
 31
0.0
  0
LINE
  5
3E5
330
1F
100
AcDbEntity
  8
0
  6
CONTINUOUS
 62
     7
100
AcDbLine
 10
575.9916577084241
 20
-164.3158523106615
 30
0.0
 11
575.9916577084241
 21
-186.3158523106615
 31
0.0
  0
LINE
  5
3E6
330
1F
100
AcDbEntity
  8
0
  6
CONTINUOUS
 62
     7
100
AcDbLine
 10
564.4916577084241
 20
-164.3158523106615
 30
0.0
 11
575.9916577084241
 21
-164.3158523106615
 31
0.0
  0
LINE
  5
3E7
330
1F
100
AcDbEntity
  8
0
  6
CONTINUOUS
 62
     7
100
AcDbLine
 10
575.9916577084241
 20
-186.3158523106615
 30
0.0
 11
565.349522084693
 21
-186.3158523106615
 31
0.0
  0
LINE
  5
3E8
330
1F
100
AcDbEntity
  8
0
  6
CONTINUOUS
 62
     7
100
AcDbLine
 10
585.9916577084241
 20
-186.3158523106615
 30
0.0
 11
593.9916577084241
 21
-186.3158523106615
 31
0.0
  0
LINE
  5
3E9
330
1F
100
AcDbEntity
  8
0
  6
CONTINUOUS
 62
     7
100
AcDbLine
 10
585.9916577084241
 20
-164.3158523106615
 30
0.0
 11
593.9916577084241
 21
-164.3158523106615
 31
0.0
  0
LINE
  5
3EA
330
1F
100
AcDbEntity
  8
0
  6
CONTINUOUS
 62
     7
100
AcDbLine
 10
593.9916577084241
 20
-164.3158523106615
 30
0.0
 11
593.9916577084241
 21
-186.3158523106615
 31
0.0
  0
ARC
  5
3EB
330
1F
100
AcDbEntity
  8
0
  6
CONTINUOUS
 62
     7
100
AcDbCircle
 10
580.9916577084241
 20
-188.9825189773281
 30
0.0
 40
5.666666666666676
100
AcDbArc
 50
28.07248693585315
 51
151.9275130641469
  0
ARC
  5
3EC
330
1F
100
AcDbEntity
  8
0
  6
CONTINUOUS
 62
     7
100
AcDbCircle
 10
533.9916577084241
 20
-175.3158523106615
 30
0.0
 40
61.00000000000003
100
AcDbArc
 50
349.6111421845304
 51
370.3888578154696
  0
ARC
  5
3ED
330
1F
100
AcDbEntity
  8
0
  6
CONTINUOUS
 62
     7
100
AcDbCircle
 10
580.9916577084241
 20
-161.6491856439949
 30
0.0
 40
5.666666666666676
100
AcDbArc
 50
208.0724869358532
 51
331.9275130641469
  0
LINE
  5
3EE
330
1F
100
AcDbEntity
  8
0
  6
CONTINUOUS
 62
     7
100
AcDbLine
 10
446.991657708424
 20
-166.6555982728171
 30
0.0
 11
446.991657708424
 21
-183.9761063485059
 31
0.0
  0
LINE
  5
3EF
330
1F
100
AcDbEntity
  8
0
  6
CONTINUOUS
 62
     7
100
AcDbLine
 10
450.0805060070164
 20
-184.803760755656
 30
0.0
 11
446.991657708424
 21
-183.9761063485059
 31
0.0
  0
LINE
  5
3F0
330
1F
100
AcDbEntity
  8
0
  6
CONTINUOUS
 62
     7
100
AcDbLine
 10
450.491657708424
 20
-165.7177760993083
 30
0.0
 11
446.991657708424
 21
-166.6555982728171
 31
0.0
  0
LINE
  5
3F1
330
1F
100
AcDbEntity
  8
0
  6
CONTINUOUS
 62
     7
100
AcDbLine
 10
195.9916577084238
 20
-87.31585231066168
 30
0.0
 11
200.9916577084238
 21
-87.31585231066168
 31
0.0
  0
LINE
  5
3F2
330
1F
100
AcDbEntity
  8
0
  6
CONTINUOUS
 62
     7
100
AcDbLine
 10
168.4916577084238
 20
-90.31585231066168
 30
0.0
 11
188.9916577084238
 21
-90.31585231066168
 31
0.0
  0
LINE
  5
3F3
330
1F
100
AcDbEntity
  8
0
  6
CONTINUOUS
 62
     7
100
AcDbLine
 10
168.4916577084238
 20
-124.3158523106617
 30
0.0
 11
188.9916577084238
 21
-124.3158523106617
 31
0.0
  0
LINE
  5
3F4
330
1F
100
AcDbEntity
  8
0
  6
CONTINUOUS
 62
     7
100
AcDbLine
 10
195.9916577084238
 20
-276.8158523106617
 30
0.0
 11
210.9916577084238
 21
-276.8158523106617
 31
0.0
  0
LINE
  5
3F5
330
1F
100
AcDbEntity
  8
0
  6
CONTINUOUS
 62
     7
100
AcDbLine
 10
204.9916577084238
 20
-257.8158523106617
 30
0.0
 11
210.9916577084238
 21
-257.8158523106617
 31
0.0
  0
LINE
  5
3F6
330
1F
100
AcDbEntity
  8
0
  6
CONTINUOUS
 62
     7
100
AcDbLine
 10
210.9916577084238
 20
-257.8158523106617
 30
0.0
 11
210.9916577084238
 21
-276.8158523106617
 31
0.0
  0
LINE
  5
3F7
330
1F
100
AcDbEntity
  8
0
  6
CONTINUOUS
 62
     7
100
AcDbLine
 10
167.9916577084238
 20
-90.81585231066168
 30
0.0
 11
168.4916577084238
 21
-90.31585231066168
 31
0.0
  0
LINE
  5
3F8
330
1F
100
AcDbEntity
  8
0
  6
CONTINUOUS
 62
     7
100
AcDbLine
 10
167.9916577084238
 20
-123.8158523106617
 30
0.0
 11
168.4916577084238
 21
-124.3158523106617
 31
0.0
  0
ARC
  5
3F9
330
1F
100
AcDbEntity
  8
0
  6
CONTINUOUS
 62
     7
100
AcDbCircle
 10
200.9916577084238
 20
-89.31585231066168
 30
0.0
 40
2.0
100
AcDbArc
 50
0.0
 51
90.0
  0
LINE
  5
3FA
330
1F
100
AcDbEntity
  8
0
  6
CONTINUOUS
 62
     7
100
AcDbLine
 10
188.9916577084238
 20
-88.81585231066168
 30
0.0
 11
192.4209434941524
 21
-88.81585231066168
 31
0.0
  0
LINE
  5
3FB
330
1F
100
AcDbEntity
  8
0
  6
CONTINUOUS
 62
     7
100
AcDbLine
 10
188.9916577084238
 20
-125.8158523106617
 30
0.0
 11
190.9916577084238
 21
-125.8158523106617
 31
0.0
  0
ARC
  5
3FC
330
1F
100
AcDbEntity
  8
0
  6
CONTINUOUS
 62
     7
100
AcDbCircle
 10
190.9916577084238
 20
-128.8158523106617
 30
0.0
 40
3.0
100
AcDbArc
 50
0.0
 51
90.0
  0
ARC
  5
3FD
330
1F
100
AcDbEntity
  8
0
  6
CONTINUOUS
 62
     7
100
AcDbCircle
 10
192.4209434941524
 20
-85.81585231066168
 30
0.0
 40
3.0
100
AcDbArc
 50
270.0
 51
315.5729959991941
  0
ARC
  5
3FE
330
1F
100
AcDbEntity
  8
0
  6
CONTINUOUS
 62
     7
100
AcDbCircle
 10
205.9916577084238
 20
-259.1923769276819
 30
0.0
 40
3.0
100
AcDbArc
 50
180.0
 51
270.0
  0
ARC
  5
3FF
330
1F
100
AcDbEntity
  8
0
  6
CONTINUOUS
 62
     7
100
AcDbCircle
 10
204.9916577084238
 20
-255.8158523106617
 30
0.0
 40
2.0
100
AcDbArc
 50
180.0
 51
270.0
  0
ARC
  5
400
330
1F
100
AcDbEntity
  8
0
  6
CONTINUOUS
 62
     7
100
AcDbCircle
 10
195.9916577084238
 20
-274.8158523106617
 30
0.0
 40
2.0
100
AcDbArc
 50
180.0
 51
270.0
  0
ARC
  5
401
330
1F
100
AcDbEntity
  8
0
  6
CONTINUOUS
 62
     7
100
AcDbCircle
 10
292.804544874443
 20
-260.3158523106617
 30
0.0
 40
4.0
100
AcDbArc
 50
11.21227141764959
 51
90.0
  0
ARC
  5
402
330
1F
100
AcDbEntity
  8
0
  6
CONTINUOUS
 62
     7
100
AcDbCircle
 10
292.8045448744429
 20
-274.3158523106617
 30
0.0
 40
4.0
100
AcDbArc
 50
270.0
 51
348.7877285823506
  0
LINE
  5
403
330
1F
100
AcDbEntity
  8
0
  6
CONTINUOUS
 62
     7
100
AcDbLine
 10
244.9916577084236
 20
-256.3158523106617
 30
0.0
 11
222.9083966189994
 21
-257.2359881893877
 31
0.0
  0
LINE
  5
404
330
1F
100
AcDbEntity
  8
0
  6
CONTINUOUS
 62
     7
100
AcDbLine
 10
222.9083966189994
 20
-277.3957164319356
 30
0.0
 11
244.991657708424
 21
-278.3158523106617
 31
0.0
  0
ARC
  5
405
330
1F
100
AcDbEntity
  8
0
  6
CONTINUOUS
 62
     7
100
AcDbCircle
 10
257.4916577084238
 20
-267.3158523106617
 30
0.0
 40
40.00000000000003
100
AcDbArc
 50
348.7877285823503
 51
371.2122714176496
  0
LINE
  5
406
330
1F
100
AcDbEntity
  8
0
  6
CONTINUOUS
 62
     7
100
AcDbLine
 10
220.4916577084238
 20
-258.8158523106617
 30
0.0
 11
220.4916577084238
 21
-275.8158523106617
 31
0.0
  0
LINE
  5
407
330
1F
100
AcDbEntity
  8
0
  6
CONTINUOUS
 62
     7
100
AcDbLine
 10
211.4916577084238
 20
-258.8158523106617
 30
0.0
 11
211.4916577084238
 21
-261.83862673561
 31
0.0
  0
LINE
  5
408
330
1F
100
AcDbEntity
  8
0
  6
CONTINUOUS
 62
     7
100
AcDbLine
 10
210.9916577084238
 20
-261.83862673561
 30
0.0
 11
218.4916577084238
 21
-261.83862673561
 31
0.0
  0
LINE
  5
409
330
1F
100
AcDbEntity
  8
0
  6
CONTINUOUS
 62
     7
100
AcDbLine
 10
210.9916577084238
 20
-272.7930778857133
 30
0.0
 11
218.4916577084238
 21
-272.7930778857133
 31
0.0
  0
LINE
  5
40A
330
1F
100
AcDbEntity
  8
0
  6
CONTINUOUS
 62
     7
100
AcDbLine
 10
292.804544874443
 20
-256.3158523106617
 30
0.0
 11
244.9916577084236
 21
-256.3158523106617
 31
0.0
  0
LINE
  5
40B
330
1F
100
AcDbEntity
  8
0
  6
CONTINUOUS
 62
     7
100
AcDbLine
 10
292.8045448744429
 20
-278.3158523106617
 30
0.0
 11
244.991657708424
 21
-278.3158523106617
 31
0.0
  0
LINE
  5
40C
330
1F
100
AcDbEntity
  8
0
  6
CONTINUOUS
 62
     7
100
AcDbLine
 10
211.4916577084238
 20
-258.8158523106617
 30
0.0
 11
210.9916577084238
 21
-259.3158523106617
 31
0.0
  0
LINE
  5
40D
330
1F
100
AcDbEntity
  8
0
  6
CONTINUOUS
 62
     7
100
AcDbLine
 10
220.4916577084238
 20
-258.8158523106617
 30
0.0
 11
220.9916577084238
 21
-259.3158523106617
 31
0.0
  0
LINE
  5
40E
330
1F
100
AcDbEntity
  8
0
  6
CONTINUOUS
 62
     7
100
AcDbLine
 10
220.4916577084238
 20
-275.8158523106617
 30
0.0
 11
220.9916577084238
 21
-275.3158523106617
 31
0.0
  0
LINE
  5
40F
330
1F
100
AcDbEntity
  8
0
  6
CONTINUOUS
 62
     7
100
AcDbLine
 10
210.9916577084238
 20
-275.3158523106617
 30
0.0
 11
211.4916577084238
 21
-275.8158523106617
 31
0.0
  0
LINE
  5
410
330
1F
100
AcDbEntity
  8
0
  6
CONTINUOUS
 62
     7
100
AcDbLine
 10
211.4916577084238
 20
-258.8158523106617
 30
0.0
 11
220.4916577084238
 21
-258.8158523106617
 31
0.0
  0
LINE
  5
411
330
1F
100
AcDbEntity
  8
0
  6
CONTINUOUS
 62
     7
100
AcDbLine
 10
211.4916577084238
 20
-275.8158523106617
 30
0.0
 11
220.4916577084238
 21
-275.8158523106617
 31
0.0
  0
LINE
  5
412
330
1F
100
AcDbEntity
  8
0
  6
CONTINUOUS
 62
     7
100
AcDbLine
 10
211.4916577084238
 20
-275.8158523106617
 30
0.0
 11
211.4916577084238
 21
-272.7930778857134
 31
0.0
  0
LINE
  5
413
330
1F
100
AcDbEntity
  8
0
  6
CONTINUOUS
 62
     7
100
AcDbLine
 10
220.9916577084238
 20
-275.3974502857509
 30
0.0
 11
220.9916577084238
 21
-259.2342543355725
 31
0.0
  0
ARC
  5
414
330
1F
100
AcDbEntity
  8
0
  6
CONTINUOUS
 62
     7
100
AcDbCircle
 10
222.9916577084238
 20
-259.2342543355725
 30
0.0
 40
2.0
100
AcDbArc
 50
92.38594403038859
 51
180.0
  0
ARC
  5
415
330
1F
100
AcDbEntity
  8
0
  6
CONTINUOUS
 62
     7
100
AcDbCircle
 10
222.9916577084238
 20
-275.3974502857509
 30
0.0
 40
2.0
100
AcDbArc
 50
180.0
 51
267.6140559696106
  0
LINE
  5
416
330
1F
100
AcDbEntity
  8
0
  6
CONTINUOUS
 62
     7
100
AcDbLine
 10
218.4916577084238
 20
-272.7930778857133
 30
0.0
 11
218.4916577084238
 21
-261.83862673561
 31
0.0
  0
LINE
  5
417
330
1F
100
AcDbEntity
  8
0
  6
CONTINUOUS
 62
     7
100
AcDbLine
 10
244.9916577084236
 20
-256.3158523106617
 30
0.0
 11
244.9916577084237
 21
-278.3158523106617
 31
0.0
  0
LINE
  5
418
330
1F
100
AcDbEntity
  8
0
  6
CONTINUOUS
 62
     7
100
AcDbLine
 10
167.9916577084238
 20
-90.81585231066168
 30
0.0
 11
167.9916577084238
 21
-96.3158523106616
 31
0.0
  0
LINE
  5
419
330
1F
100
AcDbEntity
  8
0
  6
CONTINUOUS
 62
     7
100
AcDbLine
 10
167.9916577084238
 20
-118.3158523106616
 30
0.0
 11
167.9916577084238
 21
-123.8158523106617
 31
0.0
  0
LINE
  5
41A
330
1F
100
AcDbEntity
  8
0
  6
CONTINUOUS
 62
     7
100
AcDbLine
 10
202.9916577084238
 20
-89.31585231066168
 30
0.0
 11
202.9916577084238
 21
-96.3158523106616
 31
0.0
  0
LINE
  5
41B
330
1F
100
AcDbEntity
  8
0
  6
CONTINUOUS
 62
     7
100
AcDbLine
 10
202.9916577084238
 20
-118.3158523106616
 30
0.0
 11
202.9916577084238
 21
-259.1923769276819
 31
0.0
  0
LINE
  5
41C
330
1F
100
AcDbEntity
  8
0
  6
CONTINUOUS
 62
     7
100
AcDbLine
 10
188.9916577084238
 20
-88.81585231066168
 30
0.0
 11
188.9916577084238
 21
-90.31585231066168
 31
0.0
  0
LINE
  5
41D
330
1F
100
AcDbEntity
  8
0
  6
CONTINUOUS
 62
     7
100
AcDbLine
 10
188.9916577084238
 20
-124.3158523106617
 30
0.0
 11
188.9916577084238
 21
-125.8158523106617
 31
0.0
  0
ARC
  5
41E
330
1F
100
AcDbEntity
  8
0
  6
CONTINUOUS
 62
     7
100
AcDbCircle
 10
195.9916577084238
 20
-89.31585231066168
 30
0.0
 40
2.0
100
AcDbArc
 50
90.0
 51
135.5729959991953
  0
LINE
  5
41F
330
1F
100
AcDbEntity
  8
0
  6
CONTINUOUS
 62
     7
100
AcDbLine
 10
193.9916577084238
 20
-128.8158523106617
 30
0.0
 11
193.9916577084238
 21
-274.8158523106617
 31
0.0
  0
LINE
  5
420
330
1F
100
AcDbEntity
  8
0
  6
CONTINUOUS
 62
     7
100
AcDbLine
 10
456.4373327386263
 20
431.6465209634256
 30
0.0
 11
456.4373327386263
 21
401.6465209634256
 31
0.0
  0
LINE
  5
421
330
1F
100
AcDbEntity
  8
0
  6
CONTINUOUS
 62
     7
100
AcDbLine
 10
541.4373327386263
 20
431.6465209634256
 30
0.0
 11
541.4373327386263
 21
401.6465209634256
 31
0.0
  0
LINE
  5
422
330
1F
100
AcDbEntity
  8
0
  6
CONTINUOUS
 62
     7
100
AcDbLine
 10
456.4373327386263
 20
431.6465209634256
 30
0.0
 11
541.4373327386263
 21
431.6465209634256
 31
0.0
  0
LINE
  5
423
330
1F
100
AcDbEntity
  8
0
  6
CONTINUOUS
 62
     7
100
AcDbLine
 10
456.4373327386263
 20
401.6465209634256
 30
0.0
 11
541.4373327386263
 21
401.6465209634256
 31
0.0
  0
LINE
  5
424
330
1F
100
AcDbEntity
  8
0
  6
CONTINUOUS
 62
     7
100
AcDbLine
 10
545.4373327386263
 20
405.6465209634256
 30
0.0
 11
638.8392565272727
 21
405.6465209634256
 31
0.0
  0
LINE
  5
425
330
1F
100
AcDbEntity
  8
0
  6
CONTINUOUS
 62
     7
100
AcDbLine
 10
545.4373327386263
 20
427.6465209634256
 30
0.0
 11
638.8392565272726
 21
427.6465209634256
 31
0.0
  0
LINE
  5
426
330
1F
100
AcDbEntity
  8
0
  6
CONTINUOUS
 62
     7
100
AcDbLine
 10
541.4373327386263
 20
401.6465209634256
 30
0.0
 11
545.4373327386263
 21
405.6465209634256
 31
0.0
  0
LINE
  5
427
330
1F
100
AcDbEntity
  8
0
  6
CONTINUOUS
 62
     7
100
AcDbLine
 10
541.4373327386263
 20
431.6465209634256
 30
0.0
 11
545.4373327386263
 21
427.6465209634256
 31
0.0
  0
LINE
  5
428
330
1F
100
AcDbEntity
  8
0
  6
CONTINUOUS
 62
     7
100
AcDbLine
 10
545.4373327386263
 20
405.6465209634256
 30
0.0
 11
545.4373327386263
 21
427.6465209634256
 31
0.0
  0
LINE
  5
429
330
1F
100
AcDbEntity
  8
0
  6
CONTINUOUS
 62
     7
100
AcDbLine
 10
666.4373327386263
 20
425.6465209634255
 30
0.0
 11
666.4373327386263
 21
407.6465209634256
 31
0.0
  0
LINE
  5
42A
330
1F
100
AcDbEntity
  8
0
  6
CONTINUOUS
 62
     7
100
AcDbLine
 10
666.4373327386263
 20
407.6465209634256
 30
0.0
 11
664.9373327386263
 21
406.1465209634256
 31
0.0
  0
LINE
  5
42B
330
1F
100
AcDbEntity
  8
0
  6
CONTINUOUS
 62
     7
100
AcDbLine
 10
664.9373327386263
 20
427.1465209634255
 30
0.0
 11
666.4373327386263
 21
425.6465209634255
 31
0.0
  0
LINE
  5
42C
330
1F
100
AcDbEntity
  8
0
  6
CONTINUOUS
 62
     7
100
AcDbLine
 10
664.9373327386263
 20
422.6376857813485
 30
0.0
 11
664.9373327386263
 21
421.1186663275797
 31
0.0
  0
LINE
  5
42D
330
1F
100
AcDbEntity
  8
0
  6
CONTINUOUS
 62
     7
100
AcDbLine
 10
664.9373327386263
 20
410.6553561455027
 30
0.0
 11
664.9373327386263
 21
412.1743755992715
 31
0.0
  0
LINE
  5
42E
330
1F
100
AcDbEntity
  8
0
  6
CONTINUOUS
 62
     7
100
AcDbLine
 10
641.4373327386264
 20
427.1465209634255
 30
0.0
 11
664.9373327386263
 21
427.1465209634255
 31
0.0
  0
LINE
  5
42F
330
1F
100
AcDbEntity
  8
0
  6
CONTINUOUS
 62
     7
100
AcDbLine
 10
641.4373327386264
 20
406.1465209634256
 30
0.0
 11
664.9373327386263
 21
406.1465209634256
 31
0.0
  0
LINE
  5
430
330
1F
100
AcDbEntity
  8
0
  6
CONTINUOUS
 62
     7
100
AcDbLine
 10
664.9373327386263
 20
410.6553561455027
 30
0.0
 11
641.4373327386264
 21
410.6553561455027
 31
0.0
  0
LINE
  5
431
330
1F
100
AcDbEntity
  8
0
  6
CONTINUOUS
 62
     7
100
AcDbLine
 10
664.9373327386263
 20
412.1743755992715
 30
0.0
 11
641.4373327386264
 21
412.1743755992715
 31
0.0
  0
LINE
  5
432
330
1F
100
AcDbEntity
  8
0
  6
CONTINUOUS
 62
     7
100
AcDbLine
 10
664.9373327386263
 20
421.1186663275797
 30
0.0
 11
641.4373327386264
 21
421.1186663275797
 31
0.0
  0
LINE
  5
433
330
1F
100
AcDbEntity
  8
0
  6
CONTINUOUS
 62
     7
100
AcDbLine
 10
641.4373327386264
 20
422.6376857813485
 30
0.0
 11
664.9373327386263
 21
422.6376857813485
 31
0.0
  0
LINE
  5
434
330
1F
100
AcDbEntity
  8
0
  6
CONTINUOUS
 62
     7
100
AcDbLine
 10
641.4373327386264
 20
427.1465209634255
 30
0.0
 11
641.4373327386264
 21
406.1465209634256
 31
0.0
  0
LINE
  5
435
330
1F
100
AcDbEntity
  8
0
  6
CONTINUOUS
 62
     7
100
AcDbLine
 10
641.4373327386264
 20
406.1465209634256
 30
0.0
 11
638.8392565272727
 21
405.6465209634256
 31
0.0
  0
LINE
  5
436
330
1F
100
AcDbEntity
  8
0
  6
CONTINUOUS
 62
     7
100
AcDbLine
 10
638.8392565272727
 20
405.6465209634256
 30
0.0
 11
638.8392565272727
 21
427.6465209634255
 31
0.0
  0
LINE
  5
437
330
1F
100
AcDbEntity
  8
0
  6
CONTINUOUS
 62
     7
100
AcDbLine
 10
638.8392565272727
 20
427.6465209634255
 30
0.0
 11
641.4373327386264
 21
427.1465209634255
 31
0.0
  0
ARC
  5
438
330
1F
100
AcDbEntity
  8
0
  6
CONTINUOUS
 62
     7
100
AcDbCircle
 10
662.8961334012342
 20
424.892103372387
 30
0.0
 40
3.041199337392026
100
AcDbArc
 50
312.1583853430251
 51
407.8416146569749
  0
ARC
  5
439
330
1F
100
AcDbEntity
  8
0
  6
CONTINUOUS
 62
     7
100
AcDbCircle
 10
655.4372906595638
 20
416.6465209634256
 30
0.0
 40
10.50004207906252
100
AcDbArc
 50
334.7912860464572
 51
385.2087139535428
  0
ARC
  5
43A
330
1F
100
AcDbEntity
  8
0
  6
CONTINUOUS
 62
     7
100
AcDbCircle
 10
662.8961334012342
 20
408.4009385544642
 30
0.0
 40
3.041199337392026
100
AcDbArc
 50
312.1583853430251
 51
407.8416146569749
  0
LINE
  5
43B
330
1F
100
AcDbEntity
  8
0
  6
CONTINUOUS
 62
     7
100
AcDbLine
 10
416.4896847030299
 20
427.6463963841666
 30
0.0
 11
406.8849852035986
 21
422.1011205426844
 31
0.0
  0
LINE
  5
43C
330
1F
100
AcDbEntity
  8
0
  6
CONTINUOUS
 62
     7
100
AcDbLine
 10
406.9373371680023
 20
422.1917968049077
 30
0.0
 11
406.9373371680023
 21
411.1012451219434
 31
0.0
  0
LINE
  5
43D
330
1F
100
AcDbEntity
  8
0
  6
CONTINUOUS
 62
     7
100
AcDbLine
 10
406.8849852035985
 20
411.1919213841668
 30
0.0
 11
416.48968470303
 21
405.6466455426845
 31
0.0
  0
LINE
  5
43E
330
1F
100
AcDbEntity
  8
0
  6
CONTINUOUS
 62
     7
100
AcDbLine
 10
416.3849807742225
 20
405.6466455426845
 30
0.0
 11
425.9896802736538
 21
411.1919213841666
 31
0.0
  0
LINE
  5
43F
330
1F
100
AcDbEntity
  8
0
  6
CONTINUOUS
 62
     7
100
AcDbLine
 10
425.9373283092501
 20
411.1012451219433
 30
0.0
 11
425.9373283092502
 21
422.1917968049076
 31
0.0
  0
LINE
  5
440
330
1F
100
AcDbEntity
  8
0
  6
CONTINUOUS
 62
     7
100
AcDbLine
 10
425.9896802736539
 20
422.1011205426844
 30
0.0
 11
416.3849807742226
 21
427.6463963841666
 31
0.0
  0
CIRCLE
  5
441
330
1F
100
AcDbEntity
  8
0
  6
CONTINUOUS
 62
     7
100
AcDbCircle
 10
416.4373327386262
 20
416.6465209634255
 30
0.0
 40
15.0
  0
CIRCLE
  5
442
330
1F
100
AcDbEntity
  8
0
  6
CONTINUOUS
 62
     7
100
AcDbCircle
 10
416.4373327386262
 20
416.6465209634255
 30
0.0
 40
11.0
  0
CIRCLE
  5
443
330
1F
100
AcDbEntity
  8
0
  6
CONTINUOUS
 62
     7
100
AcDbCircle
 10
416.4373327386262
 20
416.6465209634255
 30
0.0
 40
9.5
  0
LINE
  5
444
330
1F
100
AcDbEntity
  8
LAYER0002
  6
CONTINUOUS
 62
     7
100
AcDbLine
 10
218.4916577084238
 20
-272.7930778857133
 30
0.0
 11
210.9916577084238
 21
-261.83862673561
 31
0.0
  0
LINE
  5
445
330
1F
100
AcDbEntity
  8
LAYER0002
  6
CONTINUOUS
 62
     7
100
AcDbLine
 10
218.4916577084238
 20
-261.8386267356101
 30
0.0
 11
210.9916577084238
 21
-272.7930778857133
 31
0.0
  0
INSERT
  5
446
330
1F
100
AcDbEntity
  8
LAYER0014
  6
CONTINUOUS
100
AcDbBlockReference
  2
DA_IMAGEDIMGROUP_1
 10
0.0
 20
0.0
 30
0.0
  0
INSERT
  5
447
330
1F
100
AcDbEntity
  8
LAYER0014
  6
CONTINUOUS
100
AcDbBlockReference
  2
DA_IMAGEDIMGROUP_2
 10
0.0
 20
0.0
 30
0.0
  0
INSERT
  5
448
330
1F
100
AcDbEntity
  8
LAYER0014
  6
CONTINUOUS
100
AcDbBlockReference
  2
DA_IMAGEDIMGROUP_3
 10
0.0
 20
0.0
 30
0.0
  0
INSERT
  5
449
330
1F
100
AcDbEntity
  8
LAYER0014
  6
CONTINUOUS
100
AcDbBlockReference
  2
DA_IMAGEDIMGROUP_4
 10
0.0
 20
0.0
 30
0.0
  0
INSERT
  5
44A
330
1F
100
AcDbEntity
  8
LAYER0014
  6
CONTINUOUS
100
AcDbBlockReference
  2
DA_IMAGEDIMGROUP_5
 10
0.0
 20
0.0
 30
0.0
  0
INSERT
  5
44B
330
1F
100
AcDbEntity
  8
LAYER0014
  6
CONTINUOUS
100
AcDbBlockReference
  2
DA_IMAGEDIMGROUP_6
 10
0.0
 20
0.0
 30
0.0
  0
INSERT
  5
44C
330
1F
100
AcDbEntity
  8
LAYER0014
  6
CONTINUOUS
100
AcDbBlockReference
  2
DA_IMAGEDIMGROUP_7
 10
0.0
 20
0.0
 30
0.0
  0
INSERT
  5
44D
330
1F
100
AcDbEntity
  8
LAYER0014
  6
CONTINUOUS
100
AcDbBlockReference
  2
DA_IMAGEDIMGROUP_8
 10
0.0
 20
0.0
 30
0.0
  0
INSERT
  5
44E
330
1F
100
AcDbEntity
  8
LAYER0014
  6
CONTINUOUS
100
AcDbBlockReference
  2
DA_IMAGEDIMGROUP_9
 10
0.0
 20
0.0
 30
0.0
  0
INSERT
  5
44F
330
1F
100
AcDbEntity
  8
LAYER0014
  6
CONTINUOUS
100
AcDbBlockReference
  2
DA_IMAGEDIMGROUP_10
 10
0.0
 20
0.0
 30
0.0
  0
INSERT
  5
450
330
1F
100
AcDbEntity
  8
LAYER0014
  6
CONTINUOUS
100
AcDbBlockReference
  2
DA_IMAGEDIMGROUP_11
 10
0.0
 20
0.0
 30
0.0
  0
INSERT
  5
451
330
1F
100
AcDbEntity
  8
LAYER0014
  6
CONTINUOUS
100
AcDbBlockReference
  2
DA_IMAGEDIMGROUP_12
 10
0.0
 20
0.0
 30
0.0
  0
INSERT
  5
452
330
1F
100
AcDbEntity
  8
LAYER0014
  6
CONTINUOUS
100
AcDbBlockReference
  2
DA_IMAGEDIMGROUP_13
 10
0.0
 20
0.0
 30
0.0
  0
INSERT
  5
453
330
1F
100
AcDbEntity
  8
LAYER0014
  6
CONTINUOUS
100
AcDbBlockReference
  2
DA_IMAGEDIMGROUP_14
 10
0.0
 20
0.0
 30
0.0
  0
INSERT
  5
454
330
1F
100
AcDbEntity
  8
LAYER0014
  6
CONTINUOUS
100
AcDbBlockReference
  2
DA_IMAGEDIMGROUP_15
 10
0.0
 20
0.0
 30
0.0
  0
INSERT
  5
455
330
1F
100
AcDbEntity
  8
LAYER0014
  6
CONTINUOUS
100
AcDbBlockReference
  2
DA_IMAGEDIMGROUP_16
 10
0.0
 20
0.0
 30
0.0
  0
INSERT
  5
456
330
1F
100
AcDbEntity
  8
LAYER0014
  6
CONTINUOUS
100
AcDbBlockReference
  2
DA_IMAGEDIMGROUP_17
 10
0.0
 20
0.0
 30
0.0
  0
INSERT
  5
457
330
1F
100
AcDbEntity
  8
LAYER0014
  6
CONTINUOUS
100
AcDbBlockReference
  2
DA_IMAGEDIMGROUP_18
 10
0.0
 20
0.0
 30
0.0
  0
INSERT
  5
458
330
1F
100
AcDbEntity
  8
LAYER0014
  6
CONTINUOUS
100
AcDbBlockReference
  2
DA_IMAGEDIMGROUP_19
 10
0.0
 20
0.0
 30
0.0
  0
INSERT
  5
459
330
1F
100
AcDbEntity
  8
LAYER0014
  6
CONTINUOUS
100
AcDbBlockReference
  2
DA_IMAGEDIMGROUP_20
 10
0.0
 20
0.0
 30
0.0
  0
INSERT
  5
45A
330
1F
100
AcDbEntity
  8
LAYER0014
  6
CONTINUOUS
100
AcDbBlockReference
  2
DA_IMAGEDIMGROUP_21
 10
0.0
 20
0.0
 30
0.0
  0
INSERT
  5
45B
330
1F
100
AcDbEntity
  8
LAYER0014
  6
CONTINUOUS
100
AcDbBlockReference
  2
DA_IMAGEDIMGROUP_22
 10
0.0
 20
0.0
 30
0.0
  0
INSERT
  5
45C
330
1F
100
AcDbEntity
  8
LAYER0014
  6
CONTINUOUS
100
AcDbBlockReference
  2
DA_IMAGEDIMGROUP_23
 10
0.0
 20
0.0
 30
0.0
  0
INSERT
  5
45D
330
1F
100
AcDbEntity
  8
LAYER0014
  6
CONTINUOUS
100
AcDbBlockReference
  2
DA_IMAGEDIMGROUP_24
 10
0.0
 20
0.0
 30
0.0
  0
INSERT
  5
45E
330
1F
100
AcDbEntity
  8
LAYER0014
  6
CONTINUOUS
100
AcDbBlockReference
  2
DA_IMAGEDIMGROUP_25
 10
0.0
 20
0.0
 30
0.0
  0
INSERT
  5
45F
330
1F
100
AcDbEntity
  8
LAYER0014
  6
CONTINUOUS
100
AcDbBlockReference
  2
DA_IMAGEDIMGROUP_26
 10
0.0
 20
0.0
 30
0.0
  0
INSERT
  5
460
330
1F
100
AcDbEntity
  8
LAYER0014
  6
CONTINUOUS
100
AcDbBlockReference
  2
DA_IMAGEDIMGROUP_27
 10
0.0
 20
0.0
 30
0.0
  0
INSERT
  5
461
330
1F
100
AcDbEntity
  8
0
  6
CONTINUOUS
100
AcDbBlockReference
  2
DC_GROUP_1
 10
0.0
 20
0.0
 30
0.0
  0
LINE
  5
462
330
1F
100
AcDbEntity
  8
0
  6
DASHED2
 62
     5
100
AcDbLine
 10
456.4373327386263
 20
427.6463963841666
 30
0.0
 11
491.4373327386263
 21
427.6463963841666
 31
0.0
  0
LINE
  5
463
330
1F
100
AcDbEntity
  8
0
  6
DASHED2
 62
     5
100
AcDbLine
 10
456.4373327386263
 20
405.6466455426845
 30
0.0
 11
491.4373327386263
 21
405.6466455426845
 31
0.0
  0
LINE
  5
464
330
1F
100
AcDbEntity
  8
0
  6
DASHED2
 62
     5
100
AcDbLine
 10
476.4373327386263
 20
427.6463963841666
 30
0.0
 11
476.4373327386263
 21
405.6466455426845
 31
0.0
  0
LINE
  5
465
330
1F
100
AcDbEntity
  8
0
  6
DASHED2
 62
     5
100
AcDbLine
 10
476.4373327386263
 20
422.1011205426844
 30
0.0
 11
491.4373327386263
 21
422.1011205426844
 31
0.0
  0
LINE
  5
466
330
1F
100
AcDbEntity
  8
0
  6
DASHED2
 62
     5
100
AcDbLine
 10
476.4373327386263
 20
411.1919213841666
 30
0.0
 11
491.4373327386263
 21
411.1919213841666
 31
0.0
  0
LINE
  5
467
330
1F
100
AcDbEntity
  8
0
  6
DASHED2
 62
     5
100
AcDbLine
 10
491.4373327386263
 20
405.1465209634256
 30
0.0
 11
491.4373327386263
 21
428.1465209634256
 31
0.0
  0
LINE
  5
468
330
1F
100
AcDbEntity
  8
0
  6
DASHED2
 62
     5
100
AcDbLine
 10
506.4373327386263
 20
426.1465209634256
 30
0.0
 11
531.4373327386263
 21
426.1465209634256
 31
0.0
  0
LINE
  5
469
330
1F
100
AcDbEntity
  8
0
  6
DASHED2
 62
     5
100
AcDbLine
 10
491.4373327386263
 20
428.1465209634256
 30
0.0
 11
506.4373327386263
 21
428.1465209634256
 31
0.0
  0
LINE
  5
46A
330
1F
100
AcDbEntity
  8
0
  6
DASHED2
 62
     5
100
AcDbLine
 10
506.4373327386263
 20
407.1465209634256
 30
0.0
 11
531.4373327386263
 21
407.1465209634256
 31
0.0
  0
LINE
  5
46B
330
1F
100
AcDbEntity
  8
0
  6
DASHED2
 62
     5
100
AcDbLine
 10
491.4373327386263
 20
405.1465209634256
 30
0.0
 11
506.4373327386263
 21
405.1465209634256
 31
0.0
  0
LINE
  5
46C
330
1F
100
AcDbEntity
  8
0
  6
DASHED2
 62
     5
100
AcDbLine
 10
506.4373327386263
 20
405.1465209634256
 30
0.0
 11
506.4373327386263
 21
428.1465209634256
 31
0.0
  0
LINE
  5
46D
330
1F
100
AcDbEntity
  8
0
  6
DASHED2
 62
     5
100
AcDbLine
 10
531.4373327386263
 20
426.1465209634256
 30
0.0
 11
531.4373327386263
 21
407.1465209634256
 31
0.0
  0
LINE
  5
46E
330
1F
100
AcDbEntity
  8
0
  6
DASHED2
 62
     5
100
AcDbLine
 10
531.4373327386263
 20
407.1465209634256
 30
0.0
 11
536.9221602959277
 21
416.6465209634256
 31
0.0
  0
LINE
  5
46F
330
1F
100
AcDbEntity
  8
0
  6
DASHED2
 62
     5
100
AcDbLine
 10
531.4373327386263
 20
426.1465209634256
 30
0.0
 11
536.9221602959277
 21
416.6465209634256
 31
0.0
  0
INSERT
  5
470
330
1F
100
AcDbEntity
  8
LAYER0013
  6
CONTINUOUS
 62
   139
100
AcDbBlockReference
  2
DC_GROUP_2
 10
0.0
 20
0.0
 30
0.0
  0
INSERT
  5
471
330
1F
100
AcDbEntity
  8
ZUWAKU
  6
CONTINUOUS
100
AcDbBlockReference
  2
DC_GROUP_3
 10
0.0
 20
0.0
 30
0.0
  0
LINE
  5
472
330
1F
100
AcDbEntity
  8
0
  6
CONTINUOUS
 62
     4
100
AcDbLine
 10
373.75
 20
281.25
 30
0.0
 11
693.75
 21
281.25
 31
0.0
  0
LINE
  5
473
330
1F
100
AcDbEntity
  8
0
  6
CONTINUOUS
 62
     4
100
AcDbLine
 10
373.75
 20
481.2500000000001
 30
0.0
 11
373.75
 21
281.25
 31
0.0
  0
LINE
  5
474
330
1F
100
AcDbEntity
  8
0
  6
DIVIDE
 62
     4
100
AcDbLine
 10
187.084647494816
 20
-145.7846858212567
 30
0.0
 11
211.2074741267103
 21
-140.0052586073654
 31
0.0
  0
VIEWPORT
  5
4A
330
1B
100
AcDbEntity
 67
     1
  8
0
100
AcDbViewport
 10
0.0
 20
0.0
 30
0.0
 40
4162.5
 41
2887.5
 68
     1
 69
     1
1001
ACAD
1000
MVIEW
1002
{
1070
    16
1010
0.0
1020
0.0
1030
0.0
1010
0.0
1020
0.0
1030
1.0
1040
0.0
1040
2887.5
1040
0.0
1040
0.0
1040
50.0
1040
0.0
1040
0.0
1070
     0
1070
   100
1070
     0
1070
     1
1070
     0
1070
     0
1070
     0
1070
     0
1040
0.0
1040
0.0
1040
0.0
1040
0.5
1040
0.5
1040
0.0
1040
0.0
1070
     0
1002
{
1002
}
1002
}
  0
ENDSEC
  0
SECTION
  2
OBJECTS
  0
DICTIONARY
  5
C
330
0
100
AcDbDictionary
  3
ACAD_GROUP
350
D
  3
ACAD_LAYOUT
350
1A
  3
ACAD_MLINESTYLE
350
17
  3
ACAD_PLOTSETTINGS
350
19
  3
ACDBHEADERROUNDTRIPXREC
350
475
  0
DICTIONARY
  5
D
102
{ACAD_REACTORS
330
C
102
}
330
C
100
AcDbDictionary
  0
DICTIONARY
  5
1A
102
{ACAD_REACTORS
330
C
102
}
330
C
100
AcDbDictionary
  0
DICTIONARY
  5
17
102
{ACAD_REACTORS
330
C
102
}
330
C
100
AcDbDictionary
  3
STANDARD
350
18
  0
DICTIONARY
  5
19
102
{ACAD_REACTORS
330
C
102
}
330
C
100
AcDbDictionary
  0
DICTIONARY
  5
475
102
{ACAD_REACTORS
330
C
102
}
330
C
100
AcDbDictionary
  3
CEPSNTYPE
350
47E
  3
DIMSTYLEDATA
350
494
  3
FINGERPRINTGUID
350
47F
  3
HYPERLINKBASE
350
478
  3
INSUNITS
350
47D
  3
LAYOUTDICT
350
47A
  3
LWETCUNION
350
47C
  3
PLOTSETDICT
350
47B
  3
PSVPSCALE
350
481
  3
PUCSBASE
350
484
  3
PUCSORGBACK
350
48A
  3
PUCSORGBOTTOM
350
486
  3
PUCSORGFRONT
350
489
  3
PUCSORGLEFT
350
487
  3
PUCSORGRIGHT
350
488
  3
PUCSORGTOP
350
485
  3
PUCSORTHOREF
350
482
  3
PUCSORTHOVIEW
350
483
  3
STYLESHEET
350
479
  3
TSTACKALIGN
350
476
  3
TSTACKSIZE
350
477
  3
UCSBASE
350
48D
  3
UCSORGBACK
350
493
  3
UCSORGBOTTOM
350
48F
  3
UCSORGFRONT
350
492
  3
UCSORGLEFT
350
490
  3
UCSORGRIGHT
350
491
  3
UCSORGTOP
350
48E
  3
UCSORTHOREF
350
48B
  3
UCSORTHOVIEW
350
48C
  3
VERSIONGUID
350
480
  0
MLINESTYLE
  5
18
102
{ACAD_REACTORS
330
17
102
}
330
17
100
AcDbMlineStyle
  2
Standard
 70
     0
  3

 62
   256
 51
90.0
 52
90.0
 71
     2
 49
0.5
 62
   256
  6
BYLAYER
 49
-0.5
 62
   256
  6
BYLAYER
  0
XRECORD
  5
47E
102
{ACAD_REACTORS
330
475
102
}
330
475
100
AcDbXrecord
 90
        0
  0
XRECORD
  5
494
102
{ACAD_REACTORS
330
475
102
}
330
475
100
AcDbXrecord
1000
DSTYLE
1002
{
1070
   171
 70
     2
1070
   143
 40
25.4
1070
   274
 70
     2
1070
    41
 40
6.25
1070
   141
 40
0.09
1070
   271
 70
     4
1070
    43
 40
0.38
1070
    44
 40
0.18
1070
   278
 70
    46
1070
    42
 40
0.0625
1070
   147
 40
0.09
1070
    77
 70
     3
1070
   272
 70
     4
1070
    73
 70
     1
1070
   172
 70
     0
1070
    74
 70
     1
1070
   283
 70
     1
1070
   340
340
11
1070
   140
 40
0.18
1070
   284
 70
     0
1070
    78
 70
     0
1002
}
  0
XRECORD
  5
47F
102
{ACAD_REACTORS
330
475
102
}
330
475
100
AcDbXrecord
  1
{B78FB60B-86C4-4D42-85A1-A07693A75812}
  0
XRECORD
  5
478
102
{ACAD_REACTORS
330
475
102
}
330
475
100
AcDbXrecord
  1

  0
XRECORD
  5
47D
102
{ACAD_REACTORS
330
475
102
}
330
475
100
AcDbXrecord
 90
        4
  0
XRECORD
  5
47A
102
{ACAD_REACTORS
330
475
102
}
330
475
100
AcDbXrecord
340
1A
  0
XRECORD
  5
47C
102
{ACAD_REACTORS
330
475
102
}
330
475
100
AcDbXrecord
 90
    10781
  0
XRECORD
  5
47B
102
{ACAD_REACTORS
330
475
102
}
330
475
100
AcDbXrecord
340
19
  0
XRECORD
  5
481
102
{ACAD_REACTORS
330
475
102
}
330
475
100
AcDbXrecord
 40
0.0
  0
XRECORD
  5
484
102
{ACAD_REACTORS
330
475
102
}
330
475
100
AcDbXrecord
340
0
  0
XRECORD
  5
48A
102
{ACAD_REACTORS
330
475
102
}
330
475
100
AcDbXrecord
 10
0.0
 20
0.0
 30
0.0
  0
XRECORD
  5
486
102
{ACAD_REACTORS
330
475
102
}
330
475
100
AcDbXrecord
 10
0.0
 20
0.0
 30
0.0
  0
XRECORD
  5
489
102
{ACAD_REACTORS
330
475
102
}
330
475
100
AcDbXrecord
 10
0.0
 20
0.0
 30
0.0
  0
XRECORD
  5
487
102
{ACAD_REACTORS
330
475
102
}
330
475
100
AcDbXrecord
 10
0.0
 20
0.0
 30
0.0
  0
XRECORD
  5
488
102
{ACAD_REACTORS
330
475
102
}
330
475
100
AcDbXrecord
 10
0.0
 20
0.0
 30
0.0
  0
XRECORD
  5
485
102
{ACAD_REACTORS
330
475
102
}
330
475
100
AcDbXrecord
 10
0.0
 20
0.0
 30
0.0
  0
XRECORD
  5
482
102
{ACAD_REACTORS
330
475
102
}
330
475
100
AcDbXrecord
340
0
  0
XRECORD
  5
483
102
{ACAD_REACTORS
330
475
102
}
330
475
100
AcDbXrecord
 70
     0
  0
XRECORD
  5
479
102
{ACAD_REACTORS
330
475
102
}
330
475
100
AcDbXrecord
  1

  0
XRECORD
  5
476
102
{ACAD_REACTORS
330
475
102
}
330
475
100
AcDbXrecord
 90
        1
  0
XRECORD
  5
477
102
{ACAD_REACTORS
330
475
102
}
330
475
100
AcDbXrecord
 90
       70
  0
XRECORD
  5
48D
102
{ACAD_REACTORS
330
475
102
}
330
475
100
AcDbXrecord
340
0
  0
XRECORD
  5
493
102
{ACAD_REACTORS
330
475
102
}
330
475
100
AcDbXrecord
 10
0.0
 20
0.0
 30
0.0
  0
XRECORD
  5
48F
102
{ACAD_REACTORS
330
475
102
}
330
475
100
AcDbXrecord
 10
0.0
 20
0.0
 30
0.0
  0
XRECORD
  5
492
102
{ACAD_REACTORS
330
475
102
}
330
475
100
AcDbXrecord
 10
0.0
 20
0.0
 30
0.0
  0
XRECORD
  5
490
102
{ACAD_REACTORS
330
475
102
}
330
475
100
AcDbXrecord
 10
0.0
 20
0.0
 30
0.0
  0
XRECORD
  5
491
102
{ACAD_REACTORS
330
475
102
}
330
475
100
AcDbXrecord
 10
0.0
 20
0.0
 30
0.0
  0
XRECORD
  5
48E
102
{ACAD_REACTORS
330
475
102
}
330
475
100
AcDbXrecord
 10
0.0
 20
0.0
 30
0.0
  0
XRECORD
  5
48B
102
{ACAD_REACTORS
330
475
102
}
330
475
100
AcDbXrecord
340
0
  0
XRECORD
  5
48C
102
{ACAD_REACTORS
330
475
102
}
330
475
100
AcDbXrecord
 70
     0
  0
XRECORD
  5
480
102
{ACAD_REACTORS
330
475
102
}
330
475
100
AcDbXrecord
  1
{FAEB1C32-E019-11D5-929B-00C0DF256EC4}
  0
ENDSEC
  0
EOF
