  0
SECTION
  2
HEADER
  9
$ACADVER
  1
AC1014
  9
$ACADMAINTVER
 70
     9
  9
$DWGCODEPAGE
  3
ANSI_932
  9
$INSBASE
 10
0.0
 20
0.0
 30
0.0
  9
$EXTMIN
 10
-2081.25
 20
-1443.75
 30
0.0
  9
$EXTMAX
 10
2081.25
 20
1443.75
 30
0.0
  9
$LIMMIN
 10
-696.25
 20
-508.75
  9
$LIMMAX
 10
696.25
 20
508.75
  9
$ORTHOMODE
 70
     0
  9
$REGENMODE
 70
     0
  9
$FILLMODE
 70
     1
  9
$QTEXTMODE
 70
     0
  9
$MIRRTEXT
 70
     1
  9
$DRAGMODE
 70
     2
  9
$LTSCALE
 40
2.5
  9
$OSMODE
 70
    37
  9
$ATTMODE
 70
     1
  9
$TEXTSIZE
 40
0.2
  9
$TRACEWID
 40
0.05
  9
$TEXTSTYLE
  7
STANDARD
  9
$CLAYER
  8
0
  9
$CELTYPE
  6
BYLAYER
  9
$CECOLOR
 62
   256
  9
$CELTSCALE
 40
1.0
  9
$DELOBJ
 70
     1
  9
$DISPSILH
 70
     0
  9
$DIMSCALE
 40
1.0
  9
$DIMASZ
 40
0.18
  9
$DIMEXO
 40
0.0625
  9
$DIMDLI
 40
0.38
  9
$DIMRND
 40
0.0
  9
$DIMDLE
 40
0.0
  9
$DIMEXE
 40
0.18
  9
$DIMTP
 40
0.0
  9
$DIMTM
 40
0.0
  9
$DIMTXT
 40
0.18
  9
$DIMCEN
 40
0.09
  9
$DIMTSZ
 40
0.0
  9
$DIMTOL
 70
     0
  9
$DIMLIM
 70
     0
  9
$DIMTIH
 70
     1
  9
$DIMTOH
 70
     1
  9
$DIMSE1
 70
     0
  9
$DIMSE2
 70
     0
  9
$DIMTAD
 70
     3
  9
$DIMZIN
 70
     0
  9
$DIMBLK
  1

  9
$DIMASO
 70
     1
  9
$DIMSHO
 70
     1
  9
$DIMPOST
  1

  9
$DIMAPOST
  1

  9
$DIMALT
 70
     0
  9
$DIMALTD
 70
     2
  9
$DIMALTF
 40
25.4
  9
$DIMLFAC
 40
1.0
  9
$DIMTOFL
 70
     0
  9
$DIMTVP
 40
0.0
  9
$DIMTIX
 70
     0
  9
$DIMSOXD
 70
     0
  9
$DIMSAH
 70
     0
  9
$DIMBLK1
  1

  9
$DIMBLK2
  1

  9
$DIMSTYLE
  2
STANDARD
  9
$DIMCLRD
 70
     0
  9
$DIMCLRE
 70
     0
  9
$DIMCLRT
 70
     0
  9
$DIMTFAC
 40
1.0
  9
$DIMGAP
 40
0.09
  9
$DIMJUST
 70
     0
  9
$DIMSD1
 70
     0
  9
$DIMSD2
 70
     0
  9
$DIMTOLJ
 70
     1
  9
$DIMTZIN
 70
     0
  9
$DIMALTZ
 70
     0
  9
$DIMALTTZ
 70
     0
  9
$DIMFIT
 70
     3
  9
$DIMUPT
 70
     0
  9
$DIMUNIT
 70
     2
  9
$DIMDEC
 70
     4
  9
$DIMTDEC
 70
     4
  9
$DIMALTU
 70
     2
  9
$DIMALTTD
 70
     2
  9
$DIMTXSTY
  7
STANDARD
  9
$DIMAUNIT
 70
     0
  9
$LUNITS
 70
     2
  9
$LUPREC
 70
     4
  9
$SKETCHINC
 40
0.1
  9
$FILLETRAD
 40
0.5
  9
$AUNITS
 70
     0
  9
$AUPREC
 70
     0
  9
$MENU
  1
.
  9
$ELEVATION
 40
0.0
  9
$PELEVATION
 40
0.0
  9
$THICKNESS
 40
0.0
  9
$LIMCHECK
 70
     1
  9
$CHAMFERA
 40
0.5
  9
$CHAMFERB
 40
0.5
  9
$CHAMFERC
 40
1.0
  9
$CHAMFERD
 40
0.0
  9
$SKPOLY
 70
     0
  9
$TDCREATE
 40
0.0
  9
$TDUPDATE
 40
2453323.369072813
  9
$TDINDWG
 40
0.0000000116
  9
$TDUSRTIMER
 40
0.0000000116
  9
$USRTIMER
 70
     1
  9
$ANGBASE
 50
0.0
  9
$ANGDIR
 70
     0
  9
$PDMODE
 70
     0
  9
$PDSIZE
 40
1.0
  9
$PLINEWID
 40
0.0
  9
$COORDS
 70
     1
  9
$SPLFRAME
 70
     0
  9
$SPLINETYPE
 70
     6
  9
$SPLINESEGS
 70
     8
  9
$ATTDIA
 70
     0
  9
$ATTREQ
 70
     1
  9
$HANDLING
 70
     1
  9
$HANDSEED
  5
47F
  9
$SURFTAB1
 70
     6
  9
$SURFTAB2
 70
     6
  9
$SURFTYPE
 70
     6
  9
$SURFU
 70
     6
  9
$SURFV
 70
     6
  9
$UCSNAME
  2

  9
$UCSORG
 10
0.0
 20
0.0
 30
0.0
  9
$UCSXDIR
 10
1.0
 20
0.0
 30
0.0
  9
$UCSYDIR
 10
0.0
 20
1.0
 30
0.0
  9
$PUCSNAME
  2

  9
$PUCSORG
 10
0.0
 20
0.0
 30
0.0
  9
$PUCSXDIR
 10
1.0
 20
0.0
 30
0.0
  9
$PUCSYDIR
 10
0.0
 20
1.0
 30
0.0
  9
$USERI1
 70
     0
  9
$USERI2
 70
     0
  9
$USERI3
 70
     0
  9
$USERI4
 70
     0
  9
$USERI5
 70
     0
  9
$USERR1
 40
0.0
  9
$USERR2
 40
0.0
  9
$USERR3
 40
0.0
  9
$USERR4
 40
0.0
  9
$USERR5
 40
0.0
  9
$WORLDVIEW
 70
     1
  9
$SHADEDGE
 70
     3
  9
$SHADEDIF
 70
    70
  9
$TILEMODE
 70
     1
  9
$MAXACTVP
 70
    64
  9
$PINSBASE
 10
0.0
 20
0.0
 30
0.0
  9
$PLIMCHECK
 70
     1
  9
$PEXTMIN
 10
1.000000000000000E+20
 20
1.000000000000000E+20
 30
1.000000000000000E+20
  9
$PEXTMAX
 10
-1.000000000000000E+20
 20
-1.000000000000000E+20
 30
-1.000000000000000E+20
  9
$PLIMMIN
 10
0.0
 20
0.0
  9
$PLIMMAX
 10
12.0
 20
9.0
  9
$UNITMODE
 70
     0
  9
$VISRETAIN
 70
     0
  9
$PLINEGEN
 70
     1
  9
$PSLTSCALE
 70
     0
  9
$TREEDEPTH
 70
  3020
  9
$PICKSTYLE
 70
     1
  9
$CMLSTYLE
  2
STANDARD
  9
$CMLJUST
 70
     0
  9
$CMLSCALE
 40
1.0
  9
$PROXYGRAPHICS
 70
     0
  9
$MEASUREMENT
 70
     1
  0
ENDSEC
  0
SECTION
  2
CLASSES
  0
CLASS
  1
ACDBDICTIONARYWDFLT
  2
AcDbDictionaryWithDefault
  3
ObjectDBX Classes
 90
        0
280
     0
281
     0
  0
CLASS
  1
XRECORD
  2
AcDbXrecord
  3
AutoCAD 2000
 90
        0
280
     0
281
     0
  0
CLASS
  1
LWPOLYLINE
  2
AcDbPolyline
  3
AutoCAD 2000
 90
        0
280
     0
281
     1
  0
CLASS
  1
HATCH
  2
AcDbHatch
  3
AutoCAD 2000
 90
        0
280
     0
281
     1
  0
CLASS
  1
ACDBPLACEHOLDER
  2
AcDbPlaceHolder
  3
ObjectDBX Classes
 90
        0
280
     0
281
     0
  0
CLASS
  1
LAYOUT
  2
AcDbLayout
  3
ObjectDBX Classes
 90
        0
280
     0
281
     0
  0
ENDSEC
  0
SECTION
  2
TABLES
  0
TABLE
  2
VPORT
  5
8
330
0
100
AcDbSymbolTable
 70
     2
  0
VPORT
  5
29
102
{ACAD_XDICTIONARY
360
47D
102
}
330
8
100
AcDbSymbolTableRecord
100
AcDbViewportTableRecord
  2
*ACTIVE
 70
     0
 10
0.0
 20
0.0
 11
1.0
 21
1.0
 12
0.0
 22
0.0
 13
0.0
 23
0.0
 14
0.5
 24
0.5
 15
0.5
 25
0.5
 16
0.0
 26
0.0
 36
1.0
 17
0.0
 27
0.0
 37
0.0
 40
962.509625
 41
1.972972972850329
 42
50.0
 43
0.0
 44
0.0
 50
0.0
 51
0.0
 71
     0
 72
   100
 73
     1
 74
     1
 75
     0
 76
     0
 77
     0
 78
     0
  0
ENDTAB
  0
TABLE
  2
LTYPE
  5
5
330
0
100
AcDbSymbolTable
 70
    28
  0
LTYPE
  5
14
330
5
100
AcDbSymbolTableRecord
100
AcDbLinetypeTableRecord
  2
BYBLOCK
 70
     0
  3

 72
    65
 73
     0
 40
0.0
  0
LTYPE
  5
15
330
5
100
AcDbSymbolTableRecord
100
AcDbLinetypeTableRecord
  2
BYLAYER
 70
     0
  3

 72
    65
 73
     0
 40
0.0
  0
LTYPE
  5
16
330
5
100
AcDbSymbolTableRecord
100
AcDbLinetypeTableRecord
  2
CONTINUOUS
 70
     0
  3
Solid line
 72
    65
 73
     0
 40
0.0
  0
LTYPE
  5
31
330
5
100
AcDbSymbolTableRecord
100
AcDbLinetypeTableRecord
  2
HIDDENX2
 70
     0
  3
CADPAC LINETYPE
 72
    65
 73
     2
 40
9.937555753791186
 49
7.453166815343389
 74
     0
 49
-2.484388938447796
 74
     0
  0
LTYPE
  5
32
330
5
100
AcDbSymbolTableRecord
100
AcDbLinetypeTableRecord
  2
HIDDEN
 70
     0
  3
CADPAC LINETYPE
 72
    65
 73
     2
 40
7.453166815343389
 49
4.968777876895593
 74
     0
 49
-2.484388938447796
 74
     0
  0
LTYPE
  5
33
330
5
100
AcDbSymbolTableRecord
100
AcDbLinetypeTableRecord
  2
HIDDEN2
 70
     0
  3
CADPAC LINETYPE
 72
    65
 73
     2
 40
6.21097234611949
 49
3.726583407671694
 74
     0
 49
-2.484388938447796
 74
     0
  0
LTYPE
  5
34
330
5
100
AcDbSymbolTableRecord
100
AcDbLinetypeTableRecord
  2
DASHED
 70
     0
  3
CADPAC LINETYPE
 72
    65
 73
     2
 40
6.956289027653839
 49
4.968777876895593
 74
     0
 49
-1.987511150758246
 74
     0
  0
LTYPE
  5
35
330
5
100
AcDbSymbolTableRecord
100
AcDbLinetypeTableRecord
  2
DASHED2
 70
     0
  3
CADPAC LINETYPE
 72
    65
 73
     2
 40
4.47190008920602
 49
2.981266726137346
 74
     0
 49
-1.490633363068673
 74
     0
  0
LTYPE
  5
36
330
5
100
AcDbSymbolTableRecord
100
AcDbLinetypeTableRecord
  2
DASHEDX2
 70
     0
  3
CADPAC LINETYPE
 72
    65
 73
     2
 40
11.92506690454948
 49
9.93755575379123
 74
     0
 49
-1.987511150758246
 74
     0
  0
LTYPE
  5
37
330
5
100
AcDbSymbolTableRecord
100
AcDbLinetypeTableRecord
  2
DOTX2
 70
     0
  3
CADPAC LINETYPE
 72
    65
 73
     2
 40
4.347680642283649
 49
0.0
 74
     0
 49
-4.347680642283649
 74
     0
  0
LTYPE
  5
38
330
5
100
AcDbSymbolTableRecord
100
AcDbLinetypeTableRecord
  2
DOT
 70
     0
  3
CADPAC LINETYPE
 72
    65
 73
     2
 40
3.478144513826919
 49
0.0
 74
     0
 49
-3.478144513826919
 74
     0
  0
LTYPE
  5
39
330
5
100
AcDbSymbolTableRecord
100
AcDbLinetypeTableRecord
  2
DOT2
 70
     0
  3
CADPAC LINETYPE
 72
    65
 73
     2
 40
2.608608385370189
 49
0.0
 74
     0
 49
-2.608608385370189
 74
     0
  0
LTYPE
  5
3A
330
5
100
AcDbSymbolTableRecord
100
AcDbLinetypeTableRecord
  2
CENTERX2
 70
     0
  3
CADPAC LINETYPE
 72
    65
 73
     4
 40
14.90633363068678
 49
6.210972346119491
 74
     0
 49
-3.105486173059746
 74
     0
 49
2.484388938447796
 74
     0
 49
-3.105486173059746
 74
     0
  0
LTYPE
  5
3B
330
5
100
AcDbSymbolTableRecord
100
AcDbLinetypeTableRecord
  2
CENTER
 70
     0
  3
CADPAC LINETYPE
 72
    65
 73
     4
 40
11.42818911685986
 49
4.968777876895593
 74
     0
 49
-2.484388938447796
 74
     0
 49
1.490633363068678
 74
     0
 49
-2.484388938447796
 74
     0
  0
LTYPE
  5
3C
330
5
100
AcDbSymbolTableRecord
100
AcDbLinetypeTableRecord
  2
CENTER2
 70
     0
  3
CADPAC LINETYPE
 72
    65
 73
     4
 40
7.950044603032948
 49
3.726583407671694
 74
     0
 49
-1.863291703835847
 74
     0
 49
0.4968777876895593
 74
     0
 49
-1.863291703835847
 74
     0
  0
LTYPE
  5
3D
330
5
100
AcDbSymbolTableRecord
100
AcDbLinetypeTableRecord
  2
DASHDOTX2
 70
     0
  3
CADPAC LINETYPE
 72
    65
 73
     4
 40
23.85013380909881
 49
11.92506690454948
 74
     0
 49
-3.975022301516447
 74
     0
 49
3.975022301516447
 74
     0
 49
-3.975022301516447
 74
     0
  0
LTYPE
  5
3E
330
5
100
AcDbSymbolTableRecord
100
AcDbLinetypeTableRecord
  2
DASHDOT
 70
     0
  3
CADPAC LINETYPE
 72
    65
 73
     4
 40
11.92506690454948
 49
5.962533452274738
 74
     0
 49
-1.987511150758246
 74
     0
 49
1.987511150758246
 74
     0
 49
-1.987511150758246
 74
     0
  0
LTYPE
  5
3F
330
5
100
AcDbSymbolTableRecord
100
AcDbLinetypeTableRecord
  2
DASHDOT2
 70
     0
  3
CADPAC LINETYPE
 72
    65
 73
     4
 40
7.651917930419248
 49
4.471900089206054
 74
     0
 49
-1.490633363068685
 74
     0
 49
0.1987511150758246
 74
     0
 49
-1.490633363068685
 74
     0
  0
LTYPE
  5
40
330
5
100
AcDbSymbolTableRecord
100
AcDbLinetypeTableRecord
  2
DIVIDEX2
 70
     0
  3
CADPAC LINETYPE
 72
    65
 73
     6
 40
31.80017841213171
 49
11.92506690454948
 74
     0
 49
-3.975022301516447
 74
     0
 49
3.975022301516447
 74
     0
 49
-3.975022301516447
 74
     0
 49
3.975022301516447
 74
     0
 49
-3.975022301516447
 74
     0
  0
LTYPE
  5
41
330
5
100
AcDbSymbolTableRecord
100
AcDbLinetypeTableRecord
  2
DIVIDE
 70
     0
  3
CADPAC LINETYPE
 72
    65
 73
     6
 40
15.90008920606597
 49
5.962533452274738
 74
     0
 49
-1.987511150758246
 74
     0
 49
1.987511150758246
 74
     0
 49
-1.987511150758246
 74
     0
 49
1.987511150758246
 74
     0
 49
-1.987511150758246
 74
     0
  0
LTYPE
  5
42
330
5
100
AcDbSymbolTableRecord
100
AcDbLinetypeTableRecord
  2
DIVIDE2
 70
     0
  3
CADPAC LINETYPE
 72
    65
 73
     6
 40
11.92506690454948
 49
4.471900089206054
 74
     0
 49
-1.490633363068685
 74
     0
 49
1.490633363068685
 74
     0
 49
-1.490633363068685
 74
     0
 49
1.490633363068685
 74
     0
 49
-1.490633363068685
 74
     0
  0
LTYPE
  5
43
330
5
100
AcDbSymbolTableRecord
100
AcDbLinetypeTableRecord
  2
BORDERX2
 70
     0
  3
CADPAC LINETYPE
 72
    65
 73
     6
 40
21.73840321141822
 49
6.210972346119491
 74
     0
 49
-3.105486173059746
 74
     0
 49
6.210972346119491
 74
     0
 49
-3.105486173059746
 74
     0
 49
0.0
 74
     0
 49
-3.105486173059746
 74
     0
  0
LTYPE
  5
44
330
5
100
AcDbSymbolTableRecord
100
AcDbLinetypeTableRecord
  2
BORDER
 70
     0
  3
CADPAC LINETYPE
 72
    65
 73
     6
 40
17.39072256913457
 49
4.968777876895593
 74
     0
 49
-2.484388938447796
 74
     0
 49
4.968777876895593
 74
     0
 49
-2.484388938447796
 74
     0
 49
0.0
 74
     0
 49
-2.484388938447796
 74
     0
  0
LTYPE
  5
45
330
5
100
AcDbSymbolTableRecord
100
AcDbLinetypeTableRecord
  2
BORDER2
 70
     0
  3
CADPAC LINETYPE
 72
    65
 73
     6
 40
12.91882247992846
 49
3.975022301516447
 74
     0
 49
-2.484388938447774
 74
     0
 49
1.490633363068673
 74
     0
 49
-2.484388938447774
 74
     0
 49
0.0
 74
     0
 49
-2.484388938447796
 74
     0
  0
LTYPE
  5
46
330
5
100
AcDbSymbolTableRecord
100
AcDbLinetypeTableRecord
  2
PHANTOMX2
 70
     0
  3
CADPAC LINETYPE
 72
    65
 73
     6
 40
18.63291703835848
 49
6.210972346119491
 74
     0
 49
-2.484388938447796
 74
     0
 49
2.484388938447796
 74
     0
 49
-2.484388938447796
 74
     0
 49
2.484388938447796
 74
     0
 49
-2.484388938447796
 74
     0
  0
LTYPE
  5
47
330
5
100
AcDbSymbolTableRecord
100
AcDbLinetypeTableRecord
  2
PHANTOM
 70
     0
  3
CADPAC LINETYPE
 72
    65
 73
     6
 40
15.40321141837634
 49
4.968777876895593
 74
     0
 49
-2.484388938447796
 74
     0
 49
1.490633363068678
 74
     0
 49
-2.484388938447796
 74
     0
 49
1.490633363068678
 74
     0
 49
-2.484388938447796
 74
     0
  0
LTYPE
  5
48
330
5
100
AcDbSymbolTableRecord
100
AcDbLinetypeTableRecord
  2
PHANTOM2
 70
     0
  3
CADPAC LINETYPE
 72
    65
 73
     6
 40
13.16726137377332
 49
3.726583407671694
 74
     0
 49
-2.484388938447796
 74
     0
 49
0.9937555753791186
 74
     0
 49
-2.484388938447796
 74
     0
 49
0.9937555753791186
 74
     0
 49
-2.484388938447796
 74
     0
  0
LTYPE
  5
49
330
5
100
AcDbSymbolTableRecord
100
AcDbLinetypeTableRecord
  2
ACAD_ISO06W100
 70
     0
  3
CADPAC LINETYPE
 72
    65
 73
     8
 40
26.33452274754659
 49
11.92506690454948
 74
     0
 49
-2.484388938447774
 74
     0
 49
1.490633363068673
 74
     0
 49
-2.484388938447774
 74
     0
 49
1.490633363068673
 74
     0
 49
-2.484388938447774
 74
     0
 49
1.490633363068673
 74
     0
 49
-2.484388938447774
 74
     0
  0
LTYPE
  5
4A
330
5
100
AcDbSymbolTableRecord
100
AcDbLinetypeTableRecord
  2
ACAD_ISO13W100
 70
     0
  3
CADPAC LINETYPE
 72
    65
 73
     8
 40
19.87511150758237
 49
4.968777876895593
 74
     0
 49
-2.484388938447796
 74
     0
 49
4.968777876895593
 74
     0
 49
-2.484388938447796
 74
     0
 49
0.0
 74
     0
 49
-2.484388938447796
 74
     0
 49
0.0
 74
     0
 49
-2.484388938447796
 74
     0
  0
LTYPE
  5
4B
330
5
100
AcDbSymbolTableRecord
100
AcDbLinetypeTableRecord
  2
ACAD_ISO14W100
 70
     0
  3
CADPAC LINETYPE
 72
    65
 73
     8
 40
14.90633363068678
 49
4.968777876895593
 74
     0
 49
-2.484388938447796
 74
     0
 49
0.0
 74
     0
 49
-2.484388938447796
 74
     0
 49
0.0
 74
     0
 49
-2.484388938447796
 74
     0
 49
0.0
 74
     0
 49
-2.484388938447796
 74
     0
  0
ENDTAB
  0
TABLE
  2
LAYER
  5
2
330
0
100
AcDbSymbolTable
 70
     5
  0
LAYER
  5
10
330
2
100
AcDbSymbolTableRecord
100
AcDbLayerTableRecord
  2
0
 70
     0
 62
     7
  6
CONTINUOUS
  0
LAYER
  5
2B
330
2
100
AcDbSymbolTableRecord
100
AcDbLayerTableRecord
  2
LAYER0002
 70
     0
 62
     7
  6
CONTINUOUS
  0
LAYER
  5
2C
330
2
100
AcDbSymbolTableRecord
100
AcDbLayerTableRecord
  2
LAYER0013
 70
     0
 62
     7
  6
CONTINUOUS
  0
LAYER
  5
2D
330
2
100
AcDbSymbolTableRecord
100
AcDbLayerTableRecord
  2
LAYER0014
 70
     0
 62
     7
  6
CONTINUOUS
  0
LAYER
  5
2E
330
2
100
AcDbSymbolTableRecord
100
AcDbLayerTableRecord
  2
ZUWAKU
 70
     0
 62
     7
  6
CONTINUOUS
  0
ENDTAB
  0
TABLE
  2
STYLE
  5
3
330
0
100
AcDbSymbolTable
 70
     3
  0
STYLE
  5
11
330
3
100
AcDbSymbolTableRecord
100
AcDbTextStyleTableRecord
  2
STANDARD
 70
     0
 40
0.0
 41
1.0
 50
0.0
 71
     0
 42
0.2
  3
txt
  4

  0
STYLE
  5
2F
330
3
100
AcDbSymbolTableRecord
100
AcDbTextStyleTableRecord
  2
DAVECTORFONT
 70
     0
 40
10.0
 41
1.0
 50
0.0
 71
     0
 42
0.2
  3
txt.shx
  4
bigfont.shx
  0
STYLE
  5
1B7
330
3
100
AcDbSymbolTableRecord
100
AcDbTextStyleTableRecord
  2
FDASTYLE0
 70
     0
 40
12.5
 41
1.0
 50
0.0
 71
     0
 42
0.2
  3
hgrsgu.ttc
  4

1001
ACAD
1000
HGS創英角ｺﾞｼｯｸUB
1071
       34
  0
ENDTAB
  0
TABLE
  2
VIEW
  5
6
330
0
100
AcDbSymbolTable
 70
     0
  0
ENDTAB
  0
TABLE
  2
UCS
  5
7
330
0
100
AcDbSymbolTable
 70
     0
  0
ENDTAB
  0
TABLE
  2
APPID
  5
9
330
0
100
AcDbSymbolTable
 70
     2
  0
APPID
  5
12
330
9
100
AcDbSymbolTableRecord
100
AcDbRegAppTableRecord
  2
ACAD
 70
     0
  0
APPID
  5
2A
330
9
100
AcDbSymbolTableRecord
100
AcDbRegAppTableRecord
  2
DAFUSIONOUT
 70
     0
  0
ENDTAB
  0
TABLE
  2
DIMSTYLE
  5
A
330
0
100
AcDbSymbolTable
 70
     1
  0
DIMSTYLE
105
27
330
A
100
AcDbSymbolTableRecord
100
AcDbDimStyleTableRecord
  2
STANDARD
 70
     0
  3

  4

  5

  6

  7

 40
1.0
 41
0.18
 42
0.0625
 43
0.38
 44
0.18
 45
0.0
 46
0.0
 47
0.0
 48
0.0
140
0.18
141
0.09
142
0.0
143
25.4
144
1.0
145
0.0
146
1.0
147
0.09
 71
     0
 72
     0
 73
     1
 74
     1
 75
     0
 76
     0
 77
     0
 78
     0
170
     0
171
     2
172
     0
173
     0
174
     0
175
     0
176
     0
177
     0
178
     0
270
     2
271
     4
272
     4
273
     2
274
     2
340
11
275
     0
280
     0
281
     0
282
     0
283
     1
284
     0
285
     0
286
     0
287
     3
288
     0
  0
ENDTAB
  0
TABLE
  2
BLOCK_RECORD
  5
1
330
0
100
AcDbSymbolTable
 70
    39
  0
BLOCK_RECORD
  5
1F
330
1
100
AcDbSymbolTableRecord
100
AcDbBlockTableRecord
  2
*MODEL_SPACE
  0
BLOCK_RECORD
  5
1B
330
1
100
AcDbSymbolTableRecord
100
AcDbBlockTableRecord
  2
*PAPER_SPACE
  0
BLOCK_RECORD
  5
4C
330
1
100
AcDbSymbolTableRecord
100
AcDbBlockTableRecord
  2
GROUP_1
  0
BLOCK_RECORD
  5
4F
330
1
100
AcDbSymbolTableRecord
100
AcDbBlockTableRecord
  2
GROUP_2
  0
BLOCK_RECORD
  5
52
330
1
100
AcDbSymbolTableRecord
100
AcDbBlockTableRecord
  2
GROUP_3
  0
BLOCK_RECORD
  5
55
330
1
100
AcDbSymbolTableRecord
100
AcDbBlockTableRecord
  2
GROUP_4
  0
BLOCK_RECORD
  5
58
330
1
100
AcDbSymbolTableRecord
100
AcDbBlockTableRecord
  2
GROUP_5
  0
BLOCK_RECORD
  5
5B
330
1
100
AcDbSymbolTableRecord
100
AcDbBlockTableRecord
  2
GROUP_6
  0
BLOCK_RECORD
  5
5E
330
1
100
AcDbSymbolTableRecord
100
AcDbBlockTableRecord
  2
GROUP_7
  0
BLOCK_RECORD
  5
61
330
1
100
AcDbSymbolTableRecord
100
AcDbBlockTableRecord
  2
DA_IMAGEDIMGROUP_1
  0
BLOCK_RECORD
  5
64
330
1
100
AcDbSymbolTableRecord
100
AcDbBlockTableRecord
  2
_OPEN30
  0
BLOCK_RECORD
  5
67
330
1
100
AcDbSymbolTableRecord
100
AcDbBlockTableRecord
  2
DA_IMAGEDIMGROUP_2
  0
BLOCK_RECORD
  5
6A
330
1
100
AcDbSymbolTableRecord
100
AcDbBlockTableRecord
  2
DA_IMAGEDIMGROUP_3
  0
BLOCK_RECORD
  5
6D
330
1
100
AcDbSymbolTableRecord
100
AcDbBlockTableRecord
  2
DA_IMAGEDIMGROUP_4
  0
BLOCK_RECORD
  5
70
330
1
100
AcDbSymbolTableRecord
100
AcDbBlockTableRecord
  2
DA_IMAGEDIMGROUP_5
  0
BLOCK_RECORD
  5
73
330
1
100
AcDbSymbolTableRecord
100
AcDbBlockTableRecord
  2
DA_IMAGEDIMGROUP_6
  0
BLOCK_RECORD
  5
76
330
1
100
AcDbSymbolTableRecord
100
AcDbBlockTableRecord
  2
DA_IMAGEDIMGROUP_7
  0
BLOCK_RECORD
  5
79
330
1
100
AcDbSymbolTableRecord
100
AcDbBlockTableRecord
  2
DA_IMAGEDIMGROUP_8
  0
BLOCK_RECORD
  5
7C
330
1
100
AcDbSymbolTableRecord
100
AcDbBlockTableRecord
  2
DA_IMAGEDIMGROUP_9
  0
BLOCK_RECORD
  5
7F
330
1
100
AcDbSymbolTableRecord
100
AcDbBlockTableRecord
  2
DA_IMAGEDIMGROUP_10
  0
BLOCK_RECORD
  5
82
330
1
100
AcDbSymbolTableRecord
100
AcDbBlockTableRecord
  2
DA_IMAGEDIMGROUP_11
  0
BLOCK_RECORD
  5
85
330
1
100
AcDbSymbolTableRecord
100
AcDbBlockTableRecord
  2
DA_IMAGEDIMGROUP_12
  0
BLOCK_RECORD
  5
88
330
1
100
AcDbSymbolTableRecord
100
AcDbBlockTableRecord
  2
DA_IMAGEDIMGROUP_13
  0
BLOCK_RECORD
  5
8B
330
1
100
AcDbSymbolTableRecord
100
AcDbBlockTableRecord
  2
DA_IMAGEDIMGROUP_14
  0
BLOCK_RECORD
  5
8E
330
1
100
AcDbSymbolTableRecord
100
AcDbBlockTableRecord
  2
DA_IMAGEDIMGROUP_15
  0
BLOCK_RECORD
  5
91
330
1
100
AcDbSymbolTableRecord
100
AcDbBlockTableRecord
  2
DA_IMAGEDIMGROUP_16
  0
BLOCK_RECORD
  5
94
330
1
100
AcDbSymbolTableRecord
100
AcDbBlockTableRecord
  2
DA_IMAGEDIMGROUP_17
  0
BLOCK_RECORD
  5
97
330
1
100
AcDbSymbolTableRecord
100
AcDbBlockTableRecord
  2
DA_IMAGEDIMGROUP_18
  0
BLOCK_RECORD
  5
9A
330
1
100
AcDbSymbolTableRecord
100
AcDbBlockTableRecord
  2
DA_IMAGEDIMGROUP_19
  0
BLOCK_RECORD
  5
9D
330
1
100
AcDbSymbolTableRecord
100
AcDbBlockTableRecord
  2
DA_IMAGEDIMGROUP_20
  0
BLOCK_RECORD
  5
A0
330
1
100
AcDbSymbolTableRecord
100
AcDbBlockTableRecord
  2
DA_IMAGEDIMGROUP_21
  0
BLOCK_RECORD
  5
A3
330
1
100
AcDbSymbolTableRecord
100
AcDbBlockTableRecord
  2
GROUP_8
  0
BLOCK_RECORD
  5
A6
330
1
100
AcDbSymbolTableRecord
100
AcDbBlockTableRecord
  2
DA_IMAGEDIMGROUP_22
  0
BLOCK_RECORD
  5
A9
330
1
100
AcDbSymbolTableRecord
100
AcDbBlockTableRecord
  2
DA_IMAGEDIMGROUP_23
  0
BLOCK_RECORD
  5
AC
330
1
100
AcDbSymbolTableRecord
100
AcDbBlockTableRecord
  2
DA_IMAGEDIMGROUP_24
  0
BLOCK_RECORD
  5
AF
330
1
100
AcDbSymbolTableRecord
100
AcDbBlockTableRecord
  2
GROUP_9
  0
BLOCK_RECORD
  5
B2
330
1
100
AcDbSymbolTableRecord
100
AcDbBlockTableRecord
  2
DA_IMAGEDIMGROUP_25
  0
BLOCK_RECORD
  5
B5
330
1
100
AcDbSymbolTableRecord
100
AcDbBlockTableRecord
  2
DA_IMAGEDIMGROUP_26
  0
BLOCK_RECORD
  5
B8
330
1
100
AcDbSymbolTableRecord
100
AcDbBlockTableRecord
  2
DA_IMAGEDIMGROUP_27
  0
BLOCK_RECORD
  5
BB
330
1
100
AcDbSymbolTableRecord
100
AcDbBlockTableRecord
  2
GROUP_10
  0
ENDTAB
  0
ENDSEC
  0
SECTION
  2
BLOCKS
  0
BLOCK
  5
20
330
1F
100
AcDbEntity
  8
0
100
AcDbBlockBegin
  2
*MODEL_SPACE
 70
     0
 71
     0
 10
0.0
 20
0.0
 30
0.0
  3
*MODEL_SPACE
  1

  0
ENDBLK
  5
21
330
1F
100
AcDbEntity
  8
0
100
AcDbBlockEnd
  0
BLOCK
  5
1C
330
1B
100
AcDbEntity
 67
     1
  8
0
100
AcDbBlockBegin
  2
*PAPER_SPACE
 70
     0
 71
     0
 10
0.0
 20
0.0
 30
0.0
  3
*PAPER_SPACE
  1

  0
ENDBLK
  5
1D
330
1B
100
AcDbEntity
 67
     1
  8
0
100
AcDbBlockEnd
  0
BLOCK
  5
4D
330
4C
100
AcDbEntity
  8
0
100
AcDbBlockBegin
  2
GROUP_1
 70
     0
 71
     0
 10
0.0
 20
0.0
 30
0.0
  3
GROUP_1
  1

  0
LINE
  5
BE
330
4C
100
AcDbEntity
  8
0
 62
     3
100
AcDbLine
 10
-270.1612211441444
 20
138.2306846425302
 30
0.0
 11
-190.1612211441444
 21
138.2306846425302
 31
0.0
  0
LINE
  5
BF
330
4C
100
AcDbEntity
  8
0
 62
     3
100
AcDbLine
 10
-270.1612211441444
 20
119.2306846425302
 30
0.0
 11
-190.1612211441444
 21
119.2306846425302
 31
0.0
  0
ARC
  5
C0
330
4C
100
AcDbEntity
  8
0
 62
     3
100
AcDbCircle
 10
-270.1612211441444
 20
128.7306846425302
 30
0.0
 40
9.5
100
AcDbArc
 50
90.00000000000003
 51
269.9999999999999
  0
ARC
  5
C1
330
4C
100
AcDbEntity
  8
0
 62
     3
100
AcDbCircle
 10
-190.1612211441444
 20
128.7306846425302
 30
0.0
 40
9.5
100
AcDbArc
 50
269.9999999999999
 51
90.0
  0
ENDBLK
  5
4E
330
4C
100
AcDbEntity
  8
0
100
AcDbBlockEnd
  0
BLOCK
  5
50
330
4F
100
AcDbEntity
  8
0
100
AcDbBlockBegin
  2
GROUP_2
 70
     0
 71
     0
 10
0.0
 20
0.0
 30
0.0
  3
GROUP_2
  1

  0
LINE
  5
C2
330
4F
100
AcDbEntity
  8
0
 62
     3
100
AcDbLine
 10
-610.1612211441446
 20
293.573819475511
 30
0.0
 11
-610.1459999365117
 21
292.8765735335297
 31
0.0
  0
LINE
  5
C3
330
4F
100
AcDbEntity
  8
0
 62
     3
100
AcDbLine
 10
-610.1459999365117
 20
292.8765735335297
 30
0.0
 11
-610.1004521561935
 21
292.1846340541755
 31
0.0
  0
LINE
  5
C4
330
4F
100
AcDbEntity
  8
0
 62
     3
100
AcDbLine
 10
-610.1004521561935
 20
292.1846340541755
 30
0.0
 11
-610.024924449301
 21
291.5032671146907
 31
0.0
  0
LINE
  5
C5
330
4F
100
AcDbEntity
  8
0
 62
     3
100
AcDbLine
 10
-610.024924449301
 20
291.5032671146907
 30
0.0
 11
-609.9199916272884
 21
290.8376583289056
 31
0.0
  0
LINE
  5
C6
330
4F
100
AcDbEntity
  8
0
 62
     3
100
AcDbLine
 10
-609.9199916272884
 20
290.8376583289056
 30
0.0
 11
-609.7864522922913
 21
290.1928733815854
 31
0.0
  0
LINE
  5
C7
330
4F
100
AcDbEntity
  8
0
 62
     3
100
AcDbLine
 10
-609.7864522922913
 20
290.1928733815854
 30
0.0
 11
-609.6253227592823
 21
289.573819475511
 31
0.0
  0
LINE
  5
C8
330
4F
100
AcDbEntity
  8
0
 62
     3
100
AcDbLine
 10
-609.6253227592823
 20
289.573819475511
 30
0.0
 11
-609.4378293213007
 21
288.9852079847026
 31
0.0
  0
LINE
  5
C9
330
4F
100
AcDbEntity
  8
0
 62
     3
100
AcDbLine
 10
-609.4378293213007
 20
288.9852079847026
 30
0.0
 11
-609.2253989166205
 21
288.4315185980187
 31
0.0
  0
LINE
  5
CA
330
4F
100
AcDbEntity
  8
0
 62
     3
100
AcDbLine
 10
-609.2253989166205
 20
288.4315185980187
 30
0.0
 11
-608.9896482688909
 21
287.9169652260185
 31
0.0
  0
LINE
  5
CB
330
4F
100
AcDbEntity
  8
0
 62
     3
100
AcDbLine
 10
-608.9896482688909
 20
287.9169652260185
 30
0.0
 11
-608.7323715828908
 21
287.4454639305592
 31
0.0
  0
LINE
  5
CC
330
4F
100
AcDbEntity
  8
0
 62
     3
100
AcDbLine
 10
-608.7323715828908
 20
287.4454639305592
 30
0.0
 11
-608.4555268895489
 21
287.020603121199
 31
0.0
  0
LINE
  5
CD
330
4F
100
AcDbEntity
  8
0
 62
     3
100
AcDbLine
 10
-608.4555268895489
 20
287.020603121199
 30
0.0
 11
-608.1612211441446
 21
286.6456162452355
 31
0.0
  0
LINE
  5
CE
330
4F
100
AcDbEntity
  8
0
 62
     3
100
AcDbLine
 10
-608.1612211441446
 20
286.6456162452355
 30
0.0
 11
-607.8516941911074
 21
286.3233571792177
 31
0.0
  0
LINE
  5
CF
330
4F
100
AcDbEntity
  8
0
 62
     3
100
AcDbLine
 10
-607.8516941911074
 20
286.3233571792177
 30
0.0
 11
-607.5293017174473
 21
286.0562785092237
 31
0.0
  0
LINE
  5
D0
330
4F
100
AcDbEntity
  8
0
 62
     3
100
AcDbLine
 10
-607.5293017174473
 20
286.0562785092237
 30
0.0
 11
-607.1964973245548
 21
285.8464128651984
 31
0.0
  0
LINE
  5
D1
330
4F
100
AcDbEntity
  8
0
 62
     3
100
AcDbLine
 10
-607.1964973245548
 20
285.8464128651984
 30
0.0
 11
-606.8558138548123
 21
285.6953574514133
 31
0.0
  0
LINE
  5
D2
330
4F
100
AcDbEntity
  8
0
 62
     3
100
AcDbLine
 10
-606.8558138548123
 20
285.6953574514133
 30
0.0
 11
-606.5098441151353
 21
285.604261890777
 31
0.0
  0
LINE
  5
D3
330
4F
100
AcDbEntity
  8
0
 62
     3
100
AcDbLine
 10
-606.5098441151353
 20
285.604261890777
 30
0.0
 11
-606.1612211441446
 21
285.573819475511
 31
0.0
  0
ENDBLK
  5
51
330
4F
100
AcDbEntity
  8
0
100
AcDbBlockEnd
  0
BLOCK
  5
53
330
52
100
AcDbEntity
  8
0
100
AcDbBlockBegin
  2
GROUP_3
 70
     0
 71
     0
 10
0.0
 20
0.0
 30
0.0
  3
GROUP_3
  1

  0
LINE
  5
D4
330
52
100
AcDbEntity
  8
0
 62
     3
100
AcDbLine
 10
-270.1612211441445
 20
359.2306846425302
 30
0.0
 11
-190.1612211441445
 21
359.2306846425303
 31
0.0
  0
LINE
  5
D5
330
52
100
AcDbEntity
  8
0
 62
     3
100
AcDbLine
 10
-270.1612211441445
 20
378.2306846425302
 30
0.0
 11
-190.1612211441445
 21
378.2306846425303
 31
0.0
  0
ARC
  5
D6
330
52
100
AcDbEntity
  8
0
 62
     3
100
AcDbCircle
 10
-270.1612211441445
 20
368.7306846425302
 30
0.0
 40
9.5
100
AcDbArc
 50
90.0000000000001
 51
270.0000000000001
  0
ARC
  5
D7
330
52
100
AcDbEntity
  8
0
 62
     3
100
AcDbCircle
 10
-190.1612211441445
 20
368.7306846425303
 30
0.0
 40
9.5
100
AcDbArc
 50
270.0000000000001
 51
90.00000000000011
  0
ENDBLK
  5
54
330
52
100
AcDbEntity
  8
0
100
AcDbBlockEnd
  0
BLOCK
  5
56
330
55
100
AcDbEntity
  8
0
100
AcDbBlockBegin
  2
GROUP_4
 70
     0
 71
     0
 10
0.0
 20
0.0
 30
0.0
  3
GROUP_4
  1

  0
LINE
  5
D8
330
55
100
AcDbEntity
  8
0
  6
CENTER
 62
     2
100
AcDbLine
 10
-285.1612211441442
 20
-197.7522761823966
 30
0.0
 11
-285.1612211441442
 21
-236.7522761823966
 31
0.0
  0
LINE
  5
D9
330
55
100
AcDbEntity
  8
0
  6
CENTER
 62
     2
100
AcDbLine
 10
-304.6612211441442
 20
-217.2522761823966
 30
0.0
 11
-265.6612211441442
 21
-217.2522761823966
 31
0.0
  0
ARC
  5
DA
330
55
100
AcDbEntity
  8
0
 62
     3
100
AcDbCircle
 10
-285.1612211441442
 20
-217.2522761823966
 30
0.0
 40
15.0
100
AcDbArc
 50
111.0394697813139
 51
68.96053021868607
  0
ENDBLK
  5
57
330
55
100
AcDbEntity
  8
0
100
AcDbBlockEnd
  0
BLOCK
  5
59
330
58
100
AcDbEntity
  8
0
100
AcDbBlockBegin
  2
GROUP_5
 70
     0
 71
     0
 10
0.0
 20
0.0
 30
0.0
  3
GROUP_5
  1

  0
LINE
  5
DB
330
58
100
AcDbEntity
  8
0
  6
CENTER
 62
     2
100
AcDbLine
 10
-185.1612211441442
 20
-197.7522761823966
 30
0.0
 11
-185.1612211441442
 21
-236.7522761823966
 31
0.0
  0
LINE
  5
DC
330
58
100
AcDbEntity
  8
0
  6
CENTER
 62
     2
100
AcDbLine
 10
-204.6612211441442
 20
-217.2522761823966
 30
0.0
 11
-165.6612211441442
 21
-217.2522761823966
 31
0.0
  0
ARC
  5
DD
330
58
100
AcDbEntity
  8
0
 62
     3
100
AcDbCircle
 10
-185.1612211441442
 20
-217.2522761823966
 30
0.0
 40
15.0
100
AcDbArc
 50
111.0394697813139
 51
68.96053021868607
  0
ENDBLK
  5
5A
330
58
100
AcDbEntity
  8
0
100
AcDbBlockEnd
  0
BLOCK
  5
5C
330
5B
100
AcDbEntity
  8
0
100
AcDbBlockBegin
  2
GROUP_6
 70
     0
 71
     0
 10
0.0
 20
0.0
 30
0.0
  3
GROUP_6
  1

  0
LINE
  5
DE
330
5B
100
AcDbEntity
  8
0
  6
CENTER
 62
     2
100
AcDbLine
 10
-85.16122114414422
 20
-197.7522761823966
 30
0.0
 11
-85.16122114414422
 21
-236.7522761823966
 31
0.0
  0
LINE
  5
DF
330
5B
100
AcDbEntity
  8
0
  6
CENTER
 62
     2
100
AcDbLine
 10
-104.6612211441442
 20
-217.2522761823966
 30
0.0
 11
-65.66122114414422
 21
-217.2522761823966
 31
0.0
  0
ARC
  5
E0
330
5B
100
AcDbEntity
  8
0
 62
     3
100
AcDbCircle
 10
-85.16122114414422
 20
-217.2522761823966
 30
0.0
 40
15.0
100
AcDbArc
 50
111.0394697813139
 51
68.96053021868607
  0
ENDBLK
  5
5D
330
5B
100
AcDbEntity
  8
0
100
AcDbBlockEnd
  0
BLOCK
  5
5F
330
5E
100
AcDbEntity
  8
0
100
AcDbBlockBegin
  2
GROUP_7
 70
     0
 71
     0
 10
0.0
 20
0.0
 30
0.0
  3
GROUP_7
  1

  0
LINE
  5
E1
330
5E
100
AcDbEntity
  8
0
 62
     3
100
AcDbLine
 10
-610.1612211441446
 20
203.887549809549
 30
0.0
 11
-610.1459999365117
 21
204.5847957515303
 31
0.0
  0
LINE
  5
E2
330
5E
100
AcDbEntity
  8
0
 62
     3
100
AcDbLine
 10
-610.1459999365117
 20
204.5847957515303
 30
0.0
 11
-610.1004521561935
 21
205.2767352308844
 31
0.0
  0
LINE
  5
E3
330
5E
100
AcDbEntity
  8
0
 62
     3
100
AcDbLine
 10
-610.1004521561935
 20
205.2767352308844
 30
0.0
 11
-610.024924449301
 21
205.9581021703692
 31
0.0
  0
LINE
  5
E4
330
5E
100
AcDbEntity
  8
0
 62
     3
100
AcDbLine
 10
-610.024924449301
 20
205.9581021703692
 30
0.0
 11
-609.9199916272884
 21
206.6237109561543
 31
0.0
  0
LINE
  5
E5
330
5E
100
AcDbEntity
  8
0
 62
     3
100
AcDbLine
 10
-609.9199916272884
 20
206.6237109561543
 30
0.0
 11
-609.7864522922913
 21
207.2684959034746
 31
0.0
  0
LINE
  5
E6
330
5E
100
AcDbEntity
  8
0
 62
     3
100
AcDbLine
 10
-609.7864522922913
 20
207.2684959034746
 30
0.0
 11
-609.6253227592823
 21
207.887549809549
 31
0.0
  0
LINE
  5
E7
330
5E
100
AcDbEntity
  8
0
 62
     3
100
AcDbLine
 10
-609.6253227592823
 20
207.887549809549
 30
0.0
 11
-609.4378293213007
 21
208.4761613003574
 31
0.0
  0
LINE
  5
E8
330
5E
100
AcDbEntity
  8
0
 62
     3
100
AcDbLine
 10
-609.4378293213007
 20
208.4761613003574
 30
0.0
 11
-609.2253989166205
 21
209.0298506870413
 31
0.0
  0
LINE
  5
E9
330
5E
100
AcDbEntity
  8
0
 62
     3
100
AcDbLine
 10
-609.2253989166205
 20
209.0298506870413
 30
0.0
 11
-608.9896482688909
 21
209.5444040590414
 31
0.0
  0
LINE
  5
EA
330
5E
100
AcDbEntity
  8
0
 62
     3
100
AcDbLine
 10
-608.9896482688909
 20
209.5444040590414
 30
0.0
 11
-608.7323715828908
 21
210.0159053545008
 31
0.0
  0
LINE
  5
EB
330
5E
100
AcDbEntity
  8
0
 62
     3
100
AcDbLine
 10
-608.7323715828908
 20
210.0159053545008
 30
0.0
 11
-608.4555268895489
 21
210.440766163861
 31
0.0
  0
LINE
  5
EC
330
5E
100
AcDbEntity
  8
0
 62
     3
100
AcDbLine
 10
-608.4555268895489
 20
210.440766163861
 30
0.0
 11
-608.1612211441446
 21
210.8157530398245
 31
0.0
  0
LINE
  5
ED
330
5E
100
AcDbEntity
  8
0
 62
     3
100
AcDbLine
 10
-608.1612211441446
 20
210.8157530398245
 30
0.0
 11
-607.8516941911074
 21
211.1380121058422
 31
0.0
  0
LINE
  5
EE
330
5E
100
AcDbEntity
  8
0
 62
     3
100
AcDbLine
 10
-607.8516941911074
 20
211.1380121058422
 30
0.0
 11
-607.5293017174473
 21
211.4050907758363
 31
0.0
  0
LINE
  5
EF
330
5E
100
AcDbEntity
  8
0
 62
     3
100
AcDbLine
 10
-607.5293017174473
 20
211.4050907758363
 30
0.0
 11
-607.1964973245548
 21
211.6149564198616
 31
0.0
  0
LINE
  5
F0
330
5E
100
AcDbEntity
  8
0
 62
     3
100
AcDbLine
 10
-607.1964973245548
 20
211.6149564198616
 30
0.0
 11
-606.8558138548123
 21
211.7660118336467
 31
0.0
  0
LINE
  5
F1
330
5E
100
AcDbEntity
  8
0
 62
     3
100
AcDbLine
 10
-606.8558138548123
 20
211.7660118336467
 30
0.0
 11
-606.5098441151353
 21
211.857107394283
 31
0.0
  0
LINE
  5
F2
330
5E
100
AcDbEntity
  8
0
 62
     3
100
AcDbLine
 10
-606.5098441151353
 20
211.857107394283
 30
0.0
 11
-606.1612211441446
 21
211.887549809549
 31
0.0
  0
ENDBLK
  5
60
330
5E
100
AcDbEntity
  8
0
100
AcDbBlockEnd
  0
BLOCK
  5
62
330
61
100
AcDbEntity
  8
0
100
AcDbBlockBegin
  2
DA_IMAGEDIMGROUP_1
 70
     0
 71
     0
 10
0.0
 20
0.0
 30
0.0
  3
DA_IMAGEDIMGROUP_1
  1

  0
LINE
  5
F3
330
61
100
AcDbEntity
  8
LAYER0014
 62
     2
100
AcDbLine
 10
-393.1612211441444
 20
128.7306846425301
 30
0.0
 11
-659.6612211441444
 21
128.7306846425301
 31
0.0
  0
LINE
  5
F4
330
61
100
AcDbEntity
  8
LAYER0014
 62
     2
100
AcDbLine
 10
-393.1612211441444
 20
368.7306846425302
 30
0.0
 11
-659.6612211441444
 21
368.7306846425302
 31
0.0
  0
LINE
  5
F5
330
61
100
AcDbEntity
  8
LAYER0014
 62
     2
100
AcDbLine
 10
-657.6612211441444
 20
128.7306846425301
 30
0.0
 11
-657.6612211441444
 21
368.7306846425302
 31
0.0
  0
INSERT
  5
F6
330
61
100
AcDbEntity
  8
LAYER0014
 62
     2
100
AcDbBlockReference
  2
_OPEN30
 10
-657.6612211441444
 20
128.7306846425301
 30
0.0
 41
7.646601831087536
 42
5.031938088706951
 50
270.0
  0
INSERT
  5
F7
330
61
100
AcDbEntity
  8
LAYER0014
 62
     2
100
AcDbBlockReference
  2
_OPEN30
 10
-657.6612211441444
 20
368.7306846425302
 30
0.0
 41
7.646601831087536
 42
5.031938088706951
 50
90.0
  0
TEXT
  5
F8
330
61
100
AcDbEntity
  8
LAYER0014
 62
     2
100
AcDbText
 10
-659.6612211441444
 20
236.7306846425301
 30
0.0
 40
10.0
  1
240
 50
90.0
 41
0.8842105263157906
  7
DAVECTORFONT
 72
     5
 11
-659.6612211441444
 21
260.7306846425302
 31
0.0
100
AcDbText
  0
ENDBLK
  5
63
330
61
100
AcDbEntity
  8
0
100
AcDbBlockEnd
  0
BLOCK
  5
65
330
64
100
AcDbEntity
  8
0
100
AcDbBlockBegin
  2
_OPEN30
 70
     0
 71
     0
 10
0.0
 20
0.0
 30
0.0
  3
_OPEN30
  1

  0
LINE
  5
F9
330
64
100
AcDbEntity
  8
0
 62
     0
100
AcDbLine
 10
0.0
 20
0.0
 30
0.0
 11
-0.9659258262890683
 21
0.2588190451025207
 31
0.0
  0
LINE
  5
FA
330
64
100
AcDbEntity
  8
0
 62
     0
100
AcDbLine
 10
0.0
 20
0.0
 30
0.0
 11
-0.9659258262890683
 21
-0.2588190451025207
 31
0.0
  0
LINE
  5
FB
330
64
100
AcDbEntity
  8
0
 62
     0
100
AcDbLine
 10
0.0
 20
0.0
 30
0.0
 11
-1.0
 21
0.0
 31
0.0
  0
ENDBLK
  5
66
330
64
100
AcDbEntity
  8
0
100
AcDbBlockEnd
  0
BLOCK
  5
68
330
67
100
AcDbEntity
  8
0
100
AcDbBlockBegin
  2
DA_IMAGEDIMGROUP_2
 70
     0
 71
     0
 10
0.0
 20
0.0
 30
0.0
  3
DA_IMAGEDIMGROUP_2
  1

  0
LINE
  5
FC
330
67
100
AcDbEntity
  8
LAYER0014
 62
     2
100
AcDbLine
 10
-360.6612211441445
 20
105.7306846425301
 30
0.0
 11
-360.6612211441445
 21
84.23068464253009
 31
0.0
  0
LINE
  5
FD
330
67
100
AcDbEntity
  8
LAYER0014
 62
     2
100
AcDbLine
 10
-379.6612211441445
 20
106.0125222209223
 30
0.0
 11
-379.6612211441445
 21
84.23068464253009
 31
0.0
  0
LINE
  5
FE
330
67
100
AcDbEntity
  8
LAYER0014
 62
     2
100
AcDbLine
 10
-379.6612211441445
 20
86.23068464253009
 30
0.0
 11
-360.6612211441445
 21
86.23068464253009
 31
0.0
  0
LINE
  5
FF
330
67
100
AcDbEntity
  8
LAYER0014
 62
     2
100
AcDbLine
 10
-337.2751711441445
 20
86.23068464253009
 30
0.0
 11
-360.6612211441445
 21
86.23068464253009
 31
0.0
  0
INSERT
  5
100
330
67
100
AcDbEntity
  8
LAYER0014
 62
     2
100
AcDbBlockReference
  2
_OPEN30
 10
-360.6612211441445
 20
86.23068464253009
 30
0.0
 41
7.646601831087536
 42
5.031938088706951
 50
180.0
  0
LINE
  5
101
330
67
100
AcDbEntity
  8
LAYER0014
 62
     2
100
AcDbLine
 10
-388.4112211441445
 20
86.23068464253009
 30
0.0
 11
-379.6612211441445
 21
86.23068464253009
 31
0.0
  0
INSERT
  5
102
330
67
100
AcDbEntity
  8
LAYER0014
 62
     2
100
AcDbBlockReference
  2
_OPEN30
 10
-379.6612211441445
 20
86.23068464253009
 30
0.0
 41
7.646601831087536
 42
5.031938088706951
 50
360.0
  0
TEXT
  5
103
330
67
100
AcDbEntity
  8
LAYER0014
 62
     2
100
AcDbText
 10
-353.2751711441445
 20
88.23068464253009
 30
0.0
 40
10.0
  1
19
 41
0.9333333333333334
  7
DAVECTORFONT
 72
     5
 11
-337.2751711441445
 21
88.23068464253009
 31
0.0
100
AcDbText
  0
ENDBLK
  5
69
330
67
100
AcDbEntity
  8
0
100
AcDbBlockEnd
  0
BLOCK
  5
6B
330
6A
100
AcDbEntity
  8
0
100
AcDbBlockBegin
  2
DA_IMAGEDIMGROUP_3
 70
     0
 71
     0
 10
0.0
 20
0.0
 30
0.0
  3
DA_IMAGEDIMGROUP_3
  1

  0
LINE
  5
104
330
6A
100
AcDbEntity
  8
LAYER0014
 62
     2
100
AcDbLine
 10
-370.1612211441445
 20
110.7306846425302
 30
0.0
 11
-370.1612211441445
 21
61.73068464253009
 31
0.0
  0
LINE
  5
105
330
6A
100
AcDbEntity
  8
LAYER0014
 62
     2
100
AcDbLine
 10
-270.1612211441444
 20
110.7306846425302
 30
0.0
 11
-270.1612211441444
 21
61.73068464253009
 31
0.0
  0
LINE
  5
106
330
6A
100
AcDbEntity
  8
LAYER0014
 62
     2
100
AcDbLine
 10
-190.1612211441443
 20
110.7306846425303
 30
0.0
 11
-190.1612211441443
 21
61.73068464253009
 31
0.0
  0
LINE
  5
107
330
6A
100
AcDbEntity
  8
LAYER0014
 62
     2
100
AcDbLine
 10
-370.1612211441445
 20
63.73068464253009
 30
0.0
 11
-270.1612211441444
 21
63.73068464253009
 31
0.0
  0
INSERT
  5
108
330
6A
100
AcDbEntity
  8
LAYER0014
 62
     2
100
AcDbBlockReference
  2
_OPEN30
 10
-370.1612211441445
 20
63.73068464253009
 30
0.0
 41
7.646601831087536
 42
5.031938088706951
 50
180.0
  0
INSERT
  5
109
330
6A
100
AcDbEntity
  8
LAYER0014
 62
     2
100
AcDbBlockReference
  2
_OPEN30
 10
-270.1612211441444
 20
63.73068464253009
 30
0.0
 41
7.646601831087536
 42
5.031938088706951
 50
360.0
  0
LINE
  5
10A
330
6A
100
AcDbEntity
  8
LAYER0014
 62
     2
100
AcDbLine
 10
-270.1612211441444
 20
63.73068464253009
 30
0.0
 11
-190.1612211441443
 21
63.73068464253009
 31
0.0
  0
INSERT
  5
10B
330
6A
100
AcDbEntity
  8
LAYER0014
 62
     2
100
AcDbBlockReference
  2
_OPEN30
 10
-270.1612211441444
 20
63.73068464253009
 30
0.0
 41
7.646601831087536
 42
5.031938088706951
 50
180.0
  0
INSERT
  5
10C
330
6A
100
AcDbEntity
  8
LAYER0014
 62
     2
100
AcDbBlockReference
  2
_OPEN30
 10
-190.1612211441443
 20
63.73068464253009
 30
0.0
 41
7.646601831087536
 42
5.031938088706951
 50
360.0
  0
TEXT
  5
10D
330
6A
100
AcDbEntity
  8
LAYER0014
 62
     2
100
AcDbText
 10
-332.1612211441444
 20
65.73068464253008
 30
0.0
 40
10.0
  1
100
 41
0.8842105263157895
  7
DAVECTORFONT
 72
     5
 11
-308.1612211441444
 21
65.73068464253008
 31
0.0
100
AcDbText
  0
TEXT
  5
10E
330
6A
100
AcDbEntity
  8
LAYER0014
 62
     2
100
AcDbText
 10
-238.1612211441443
 20
65.73068464253008
 30
0.0
 40
10.0
  1
80
 41
0.9081081081081081
  7
DAVECTORFONT
 72
     5
 11
-222.1612211441443
 21
65.73068464253008
 31
0.0
100
AcDbText
  0
ENDBLK
  5
6C
330
6A
100
AcDbEntity
  8
0
100
AcDbBlockEnd
  0
BLOCK
  5
6E
330
6D
100
AcDbEntity
  8
0
100
AcDbBlockBegin
  2
DA_IMAGEDIMGROUP_4
 70
     0
 71
     0
 10
0.0
 20
0.0
 30
0.0
  3
DA_IMAGEDIMGROUP_4
  1

  0
LINE
  5
10F
330
6D
100
AcDbEntity
  8
LAYER0014
 62
     2
100
AcDbLine
 10
-635.1612211441446
 20
173.23068464253
 30
0.0
 11
-635.1612211441446
 21
39.23068464253009
 31
0.0
  0
LINE
  5
110
330
6D
100
AcDbEntity
  8
LAYER0014
 62
     2
100
AcDbLine
 10
189.8387788558559
 20
236.7306846425304
 30
0.0
 11
189.8387788558559
 21
39.23068464253009
 31
0.0
  0
LINE
  5
111
330
6D
100
AcDbEntity
  8
LAYER0014
 62
     2
100
AcDbLine
 10
-635.1612211441446
 20
41.23068464253009
 30
0.0
 11
189.8387788558558
 21
41.23068464253009
 31
0.0
  0
INSERT
  5
112
330
6D
100
AcDbEntity
  8
LAYER0014
 62
     2
100
AcDbBlockReference
  2
_OPEN30
 10
-635.1612211441446
 20
41.23068464253009
 30
0.0
 41
7.646601831087536
 42
5.031938088706951
 50
180.0
  0
INSERT
  5
113
330
6D
100
AcDbEntity
  8
LAYER0014
 62
     2
100
AcDbBlockReference
  2
_OPEN30
 10
189.8387788558559
 20
41.23068464253009
 30
0.0
 41
7.646601831087536
 42
5.031938088706951
 50
360.0
  0
TEXT
  5
114
330
6D
100
AcDbEntity
  8
LAYER0014
 62
     2
100
AcDbText
 10
-250.4112211441444
 20
43.23068464253009
 30
0.0
 40
10.0
  1
MAX:900
 41
0.9116279069767441
  7
DAVECTORFONT
 72
     5
 11
-194.4112211441444
 21
43.23068464253009
 31
0.0
100
AcDbText
  0
ENDBLK
  5
6F
330
6D
100
AcDbEntity
  8
0
100
AcDbBlockEnd
  0
BLOCK
  5
71
330
70
100
AcDbEntity
  8
0
100
AcDbBlockBegin
  2
DA_IMAGEDIMGROUP_5
 70
     0
 71
     0
 10
0.0
 20
0.0
 30
0.0
  3
DA_IMAGEDIMGROUP_5
  1

  0
LINE
  5
115
330
70
100
AcDbEntity
  8
LAYER0014
 62
     2
100
AcDbLine
 10
27.83877885585527
 20
361.2306846425304
 30
0.0
 11
213.8387788558559
 21
361.2306846425304
 31
0.0
  0
LINE
  5
116
330
70
100
AcDbEntity
  8
LAYER0014
 62
     2
100
AcDbLine
 10
27.83877885585538
 20
136.2306846425304
 30
0.0
 11
213.8387788558559
 21
136.2306846425304
 31
0.0
  0
LINE
  5
117
330
70
100
AcDbEntity
  8
LAYER0014
 62
     2
100
AcDbLine
 10
211.8387788558559
 20
136.2306846425304
 30
0.0
 11
211.8387788558559
 21
361.2306846425304
 31
0.0
  0
INSERT
  5
118
330
70
100
AcDbEntity
  8
LAYER0014
 62
     2
100
AcDbBlockReference
  2
_OPEN30
 10
211.8387788558559
 20
136.2306846425304
 30
0.0
 41
7.646601831087536
 42
5.031938088706951
 50
270.0
  0
INSERT
  5
119
330
70
100
AcDbEntity
  8
LAYER0014
 62
     2
100
AcDbBlockReference
  2
_OPEN30
 10
211.8387788558559
 20
361.2306846425304
 30
0.0
 41
7.646601831087536
 42
5.031938088706951
 50
90.0
  0
TEXT
  5
11A
330
70
100
AcDbEntity
  8
LAYER0014
 62
     2
100
AcDbText
 10
209.8387788558559
 20
236.7306846425304
 30
0.0
 40
10.0
  1
225
 50
90.0
 41
0.8842105263157906
  7
DAVECTORFONT
 72
     5
 11
209.8387788558559
 21
260.7306846425304
 31
0.0
100
AcDbText
  0
ENDBLK
  5
72
330
70
100
AcDbEntity
  8
0
100
AcDbBlockEnd
  0
BLOCK
  5
74
330
73
100
AcDbEntity
  8
0
100
AcDbBlockBegin
  2
DA_IMAGEDIMGROUP_6
 70
     0
 71
     0
 10
0.0
 20
0.0
 30
0.0
  3
DA_IMAGEDIMGROUP_6
  1

  0
LINE
  5
11B
330
73
100
AcDbEntity
  8
LAYER0014
 62
     2
100
AcDbLine
 10
-202.1612211441448
 20
108.7306846425302
 30
0.0
 11
236.3387788558559
 21
108.7306846425302
 31
0.0
  0
LINE
  5
11C
330
73
100
AcDbEntity
  8
LAYER0014
 62
     2
100
AcDbLine
 10
-202.1612211441447
 20
388.7306846425303
 30
0.0
 11
236.3387788558559
 21
388.7306846425303
 31
0.0
  0
LINE
  5
11D
330
73
100
AcDbEntity
  8
LAYER0014
 62
     2
100
AcDbLine
 10
234.3387788558559
 20
108.7306846425302
 30
0.0
 11
234.3387788558559
 21
388.7306846425303
 31
0.0
  0
INSERT
  5
11E
330
73
100
AcDbEntity
  8
LAYER0014
 62
     2
100
AcDbBlockReference
  2
_OPEN30
 10
234.3387788558559
 20
108.7306846425302
 30
0.0
 41
7.646601831087536
 42
5.031938088706951
 50
270.0
  0
INSERT
  5
11F
330
73
100
AcDbEntity
  8
LAYER0014
 62
     2
100
AcDbBlockReference
  2
_OPEN30
 10
234.3387788558559
 20
388.7306846425303
 30
0.0
 41
7.646601831087536
 42
5.031938088706951
 50
90.0
  0
TEXT
  5
120
330
73
100
AcDbEntity
  8
LAYER0014
 62
     2
100
AcDbText
 10
232.3387788558559
 20
236.7306846425302
 30
0.0
 40
10.0
  1
280
 50
90.0
 41
0.8842105263157906
  7
DAVECTORFONT
 72
     5
 11
232.3387788558559
 21
260.7306846425303
 31
0.0
100
AcDbText
  0
ENDBLK
  5
75
330
73
100
AcDbEntity
  8
0
100
AcDbBlockEnd
  0
BLOCK
  5
77
330
76
100
AcDbEntity
  8
0
100
AcDbBlockBegin
  2
DA_IMAGEDIMGROUP_7
 70
     0
 71
     0
 10
0.0
 20
0.0
 30
0.0
  3
DA_IMAGEDIMGROUP_7
  1

  0
LINE
  5
121
330
76
100
AcDbEntity
  8
LAYER0014
 62
     2
100
AcDbLine
 10
-467.1612211441445
 20
351.73068464253
 30
0.0
 11
-420.6612211441426
 21
351.73068464253
 31
0.0
  0
LINE
  5
122
330
76
100
AcDbEntity
  8
LAYER0014
 62
     2
100
AcDbLine
 10
-467.1612211441444
 20
145.73068464253
 30
0.0
 11
-420.6612211441426
 21
145.73068464253
 31
0.0
  0
LINE
  5
123
330
76
100
AcDbEntity
  8
LAYER0014
 62
     2
100
AcDbLine
 10
-422.6612211441426
 20
145.73068464253
 30
0.0
 11
-422.6612211441426
 21
351.73068464253
 31
0.0
  0
INSERT
  5
124
330
76
100
AcDbEntity
  8
LAYER0014
 62
     2
100
AcDbBlockReference
  2
_OPEN30
 10
-422.6612211441426
 20
145.73068464253
 30
0.0
 41
7.646601831087536
 42
5.031938088706951
 50
270.0
  0
INSERT
  5
125
330
76
100
AcDbEntity
  8
LAYER0014
 62
     2
100
AcDbBlockReference
  2
_OPEN30
 10
-422.6612211441426
 20
351.73068464253
 30
0.0
 41
7.646601831087536
 42
5.031938088706951
 50
90.0
  0
TEXT
  5
126
330
76
100
AcDbEntity
  8
LAYER0014
 62
     2
100
AcDbText
 10
-424.6612211441426
 20
236.73068464253
 30
0.0
 40
10.0
  1
206
 50
90.0
 41
0.8842105263157906
  7
DAVECTORFONT
 72
     5
 11
-424.6612211441426
 21
260.73068464253
 31
0.0
100
AcDbText
  0
ENDBLK
  5
78
330
76
100
AcDbEntity
  8
0
100
AcDbBlockEnd
  0
BLOCK
  5
7A
330
79
100
AcDbEntity
  8
0
100
AcDbBlockBegin
  2
DA_IMAGEDIMGROUP_8
 70
     0
 71
     0
 10
0.0
 20
0.0
 30
0.0
  3
DA_IMAGEDIMGROUP_8
  1

  0
LINE
  5
127
330
79
100
AcDbEntity
  8
LAYER0014
 62
     2
100
AcDbLine
 10
-267.6612211441445
 20
168.7306846425302
 30
0.0
 11
-267.6612211441445
 21
328.7306846425303
 31
0.0
  0
INSERT
  5
128
330
79
100
AcDbEntity
  8
LAYER0014
 62
     2
100
AcDbBlockReference
  2
_OPEN30
 10
-267.6612211441445
 20
168.7306846425302
 30
0.0
 41
7.646601831087536
 42
5.031938088706951
 50
270.0
  0
INSERT
  5
129
330
79
100
AcDbEntity
  8
LAYER0014
 62
     2
100
AcDbBlockReference
  2
_OPEN30
 10
-267.6612211441445
 20
328.7306846425303
 30
0.0
 41
7.646601831087536
 42
5.031938088706951
 50
90.0
  0
TEXT
  5
12A
330
79
100
AcDbEntity
  8
LAYER0014
 62
     2
100
AcDbText
 10
-269.6612211441445
 20
236.7306846425302
 30
0.0
 40
10.0
  1
160
 50
90.0
 41
0.8842105263157895
  7
DAVECTORFONT
 72
     5
 11
-269.6612211441445
 21
260.7306846425302
 31
0.0
100
AcDbText
  0
ENDBLK
  5
7B
330
79
100
AcDbEntity
  8
0
100
AcDbBlockEnd
  0
BLOCK
  5
7D
330
7C
100
AcDbEntity
  8
0
100
AcDbBlockBegin
  2
DA_IMAGEDIMGROUP_9
 70
     0
 71
     0
 10
0.0
 20
0.0
 30
0.0
  3
DA_IMAGEDIMGROUP_9
  1

  0
LINE
  5
12B
330
7C
100
AcDbEntity
  8
LAYER0014
 62
     2
100
AcDbLine
 10
-379.1612211441442
 20
-276.2522761823965
 30
0.0
 11
-379.1612211441442
 21
-297.7522761823965
 31
0.0
  0
LINE
  5
12C
330
7C
100
AcDbEntity
  8
LAYER0014
 62
     2
100
AcDbLine
 10
-361.1612211441442
 20
-276.2522761823965
 30
0.0
 11
-361.1612211441442
 21
-297.7522761823965
 31
0.0
  0
LINE
  5
12D
330
7C
100
AcDbEntity
  8
LAYER0014
 62
     2
100
AcDbLine
 10
-379.1612211441442
 20
-295.7522761823965
 30
0.0
 11
-361.1612211441442
 21
-295.7522761823965
 31
0.0
  0
LINE
  5
12E
330
7C
100
AcDbEntity
  8
LAYER0014
 62
     2
100
AcDbLine
 10
-414.9159756530989
 20
-295.7522761823965
 30
0.0
 11
-379.1612211441442
 21
-295.7522761823965
 31
0.0
  0
INSERT
  5
12F
330
7C
100
AcDbEntity
  8
LAYER0014
 62
     2
100
AcDbBlockReference
  2
_OPEN30
 10
-379.1612211441442
 20
-295.7522761823965
 30
0.0
 41
7.646601831087536
 42
5.031938088706951
 50
360.0
  0
LINE
  5
130
330
7C
100
AcDbEntity
  8
LAYER0014
 62
     2
100
AcDbLine
 10
-352.4112211441442
 20
-295.7522761823965
 30
0.0
 11
-361.1612211441442
 21
-295.7522761823965
 31
0.0
  0
INSERT
  5
131
330
7C
100
AcDbEntity
  8
LAYER0014
 62
     2
100
AcDbBlockReference
  2
_OPEN30
 10
-361.1612211441442
 20
-295.7522761823965
 30
0.0
 41
7.646601831087536
 42
5.031938088706951
 50
180.0
  0
TEXT
  5
132
330
7C
100
AcDbEntity
  8
LAYER0014
 62
     2
100
AcDbText
 10
-414.9159756530989
 20
-293.7522761823965
 30
0.0
 40
10.0
  1
18
 41
0.9081081081081081
  7
DAVECTORFONT
 72
     5
 11
-398.9159756530989
 21
-293.7522761823965
 31
0.0
100
AcDbText
  0
TEXT
  5
133
330
7C
100
AcDbEntity
  8
LAYER0014
 62
     2
100
AcDbText
 10
-397.6659756530989
 20
-293.7522761823965
 30
0.0
 40
10.0
  1
h6
 41
0.9333333333333334
  7
DAVECTORFONT
 72
     5
 11
-381.6659756530989
 21
-293.7522761823965
 31
0.0
100
AcDbText
  0
ENDBLK
  5
7E
330
7C
100
AcDbEntity
  8
0
100
AcDbBlockEnd
  0
BLOCK
  5
80
330
7F
100
AcDbEntity
  8
0
100
AcDbBlockBegin
  2
DA_IMAGEDIMGROUP_10
 70
     0
 71
     0
 10
0.0
 20
0.0
 30
0.0
  3
DA_IMAGEDIMGROUP_10
  1

  0
LINE
  5
134
330
7F
100
AcDbEntity
  8
LAYER0014
 62
     2
100
AcDbLine
 10
-370.1612211441442
 20
-279.155362322107
 30
0.0
 11
-370.1612211441442
 21
-320.2522761823965
 31
0.0
  0
LINE
  5
135
330
7F
100
AcDbEntity
  8
LAYER0014
 62
     2
100
AcDbLine
 10
-470.1612211441441
 20
-168.2522761823966
 30
0.0
 11
-470.1612211441441
 21
-320.2522761823965
 31
0.0
  0
LINE
  5
136
330
7F
100
AcDbEntity
  8
LAYER0014
 62
     2
100
AcDbLine
 10
-470.1612211441441
 20
-318.2522761823965
 30
0.0
 11
-370.1612211441442
 21
-318.2522761823965
 31
0.0
  0
INSERT
  5
137
330
7F
100
AcDbEntity
  8
LAYER0014
 62
     2
100
AcDbBlockReference
  2
_OPEN30
 10
-470.1612211441441
 20
-318.2522761823965
 30
0.0
 41
7.646601831087536
 42
5.031938088706951
 50
180.0
  0
INSERT
  5
138
330
7F
100
AcDbEntity
  8
LAYER0014
 62
     2
100
AcDbBlockReference
  2
_OPEN30
 10
-370.1612211441442
 20
-318.2522761823965
 30
0.0
 41
7.646601831087536
 42
5.031938088706951
 50
360.0
  0
TEXT
  5
139
330
7F
100
AcDbEntity
  8
LAYER0014
 62
     2
100
AcDbText
 10
-432.1612211441442
 20
-316.2522761823965
 30
0.0
 40
10.0
  1
100
 41
0.8842105263157895
  7
DAVECTORFONT
 72
     5
 11
-408.1612211441442
 21
-316.2522761823965
 31
0.0
100
AcDbText
  0
ENDBLK
  5
81
330
7F
100
AcDbEntity
  8
0
100
AcDbBlockEnd
  0
BLOCK
  5
83
330
82
100
AcDbEntity
  8
0
100
AcDbBlockBegin
  2
DA_IMAGEDIMGROUP_11
 70
     0
 71
     0
 10
0.0
 20
0.0
 30
0.0
  3
DA_IMAGEDIMGROUP_11
  1

  0
LINE
  5
13A
330
82
100
AcDbEntity
  8
LAYER0014
 62
     2
100
AcDbLine
 10
-370.1612211441442
 20
-323.2522761823965
 30
0.0
 11
-370.1612211441442
 21
-342.7522761823965
 31
0.0
  0
LINE
  5
13B
330
82
100
AcDbEntity
  8
LAYER0014
 62
     2
100
AcDbLine
 10
-635.1612211441442
 20
-268.2522761823967
 30
0.0
 11
-635.1612211441442
 21
-342.7522761823965
 31
0.0
  0
LINE
  5
13C
330
82
100
AcDbEntity
  8
LAYER0014
 62
     2
100
AcDbLine
 10
-635.1612211441442
 20
-340.7522761823965
 30
0.0
 11
-370.1612211441442
 21
-340.7522761823965
 31
0.0
  0
INSERT
  5
13D
330
82
100
AcDbEntity
  8
LAYER0014
 62
     2
100
AcDbBlockReference
  2
_OPEN30
 10
-635.1612211441442
 20
-340.7522761823965
 30
0.0
 41
7.646601831087536
 42
5.031938088706951
 50
180.0
  0
INSERT
  5
13E
330
82
100
AcDbEntity
  8
LAYER0014
 62
     2
100
AcDbBlockReference
  2
_OPEN30
 10
-370.1612211441442
 20
-340.7522761823965
 30
0.0
 41
7.646601831087536
 42
5.031938088706951
 50
360.0
  0
TEXT
  5
13F
330
82
100
AcDbEntity
  8
LAYER0014
 62
     2
100
AcDbText
 10
-514.6612211441442
 20
-338.7522761823965
 30
0.0
 40
10.0
  1
265
 41
0.8842105263157895
  7
DAVECTORFONT
 72
     5
 11
-490.6612211441442
 21
-338.7522761823965
 31
0.0
100
AcDbText
  0
ENDBLK
  5
84
330
82
100
AcDbEntity
  8
0
100
AcDbBlockEnd
  0
BLOCK
  5
86
330
85
100
AcDbEntity
  8
0
100
AcDbBlockBegin
  2
DA_IMAGEDIMGROUP_12
 70
     0
 71
     0
 10
0.0
 20
0.0
 30
0.0
  3
DA_IMAGEDIMGROUP_12
  1

  0
LINE
  5
140
330
85
100
AcDbEntity
  8
LAYER0014
 62
     2
100
AcDbLine
 10
-635.1612211441442
 20
-345.7522761823965
 30
0.0
 11
-635.1612211441442
 21
-365.2522761823965
 31
0.0
  0
LINE
  5
141
330
85
100
AcDbEntity
  8
LAYER0014
 62
     2
100
AcDbLine
 10
-610.1612211441444
 20
-273.2522761823967
 30
0.0
 11
-610.1612211441444
 21
-365.2522761823965
 31
0.0
  0
LINE
  5
142
330
85
100
AcDbEntity
  8
LAYER0014
 62
     2
100
AcDbLine
 10
39.83877885585567
 20
-273.2522761823967
 30
0.0
 11
39.83877885585567
 21
-365.2522761823965
 31
0.0
  0
LINE
  5
143
330
85
100
AcDbEntity
  8
LAYER0014
 62
     2
100
AcDbLine
 10
64.83877885585567
 20
-268.2522761823963
 30
0.0
 11
64.83877885585567
 21
-365.2522761823965
 31
0.0
  0
LINE
  5
144
330
85
100
AcDbEntity
  8
LAYER0014
 62
     2
100
AcDbLine
 10
-635.1612211441442
 20
-363.2522761823965
 30
0.0
 11
-610.1612211441444
 21
-363.2522761823965
 31
0.0
  0
INSERT
  5
145
330
85
100
AcDbEntity
  8
LAYER0014
 62
     2
100
AcDbBlockReference
  2
_OPEN30
 10
-635.1612211441442
 20
-363.2522761823965
 30
0.0
 41
7.646601831087536
 42
5.031938088706951
 50
180.0
  0
INSERT
  5
146
330
85
100
AcDbEntity
  8
LAYER0014
 62
     2
100
AcDbBlockReference
  2
_OPEN30
 10
-610.1612211441444
 20
-363.2522761823965
 30
0.0
 41
7.646601831087536
 42
5.031938088706951
 50
360.0
  0
LINE
  5
147
330
85
100
AcDbEntity
  8
LAYER0014
 62
     2
100
AcDbLine
 10
-610.1612211441444
 20
-363.2522761823965
 30
0.0
 11
39.83877885585571
 21
-363.2522761823965
 31
0.0
  0
INSERT
  5
148
330
85
100
AcDbEntity
  8
LAYER0014
 62
     2
100
AcDbBlockReference
  2
_OPEN30
 10
-610.1612211441444
 20
-363.2522761823965
 30
0.0
 41
7.646601831087536
 42
5.031938088706951
 50
180.0
  0
INSERT
  5
149
330
85
100
AcDbEntity
  8
LAYER0014
 62
     2
100
AcDbBlockReference
  2
_OPEN30
 10
39.83877885585567
 20
-363.2522761823965
 30
0.0
 41
7.646601831087536
 42
5.031938088706951
 50
360.0
  0
LINE
  5
14A
330
85
100
AcDbEntity
  8
LAYER0014
 62
     2
100
AcDbLine
 10
39.83877885585567
 20
-363.2522761823965
 30
0.0
 11
64.83877885585567
 21
-363.2522761823965
 31
0.0
  0
INSERT
  5
14B
330
85
100
AcDbEntity
  8
LAYER0014
 62
     2
100
AcDbBlockReference
  2
_OPEN30
 10
39.83877885585567
 20
-363.2522761823965
 30
0.0
 41
7.646601831087536
 42
5.031938088706951
 50
180.0
  0
INSERT
  5
14C
330
85
100
AcDbEntity
  8
LAYER0014
 62
     2
100
AcDbBlockReference
  2
_OPEN30
 10
64.83877885585567
 20
-363.2522761823965
 30
0.0
 41
7.646601831087536
 42
5.031938088706951
 50
360.0
  0
TEXT
  5
14D
330
85
100
AcDbEntity
  8
LAYER0014
 62
     2
100
AcDbText
 10
-630.6612211441443
 20
-361.2522761823965
 30
0.0
 40
10.0
  1
25
 41
0.9081081081081081
  7
DAVECTORFONT
 72
     5
 11
-614.6612211441443
 21
-361.2522761823965
 31
0.0
100
AcDbText
  0
TEXT
  5
14E
330
85
100
AcDbEntity
  8
LAYER0014
 62
     2
100
AcDbText
 10
-297.1612211441444
 20
-361.2522761823965
 30
0.0
 40
10.0
  1
650
 41
0.8842105263157895
  7
DAVECTORFONT
 72
     5
 11
-273.1612211441444
 21
-361.2522761823965
 31
0.0
100
AcDbText
  0
TEXT
  5
14F
330
85
100
AcDbEntity
  8
LAYER0014
 62
     2
100
AcDbText
 10
44.33877885585567
 20
-361.2522761823965
 30
0.0
 40
10.0
  1
25
 41
0.9081081081081081
  7
DAVECTORFONT
 72
     5
 11
60.33877885585567
 21
-361.2522761823965
 31
0.0
100
AcDbText
  0
ENDBLK
  5
87
330
85
100
AcDbEntity
  8
0
100
AcDbBlockEnd
  0
BLOCK
  5
89
330
88
100
AcDbEntity
  8
0
100
AcDbBlockBegin
  2
DA_IMAGEDIMGROUP_13
 70
     0
 71
     0
 10
0.0
 20
0.0
 30
0.0
  3
DA_IMAGEDIMGROUP_13
  1

  0
LINE
  5
150
330
88
100
AcDbEntity
  8
LAYER0014
 62
     2
100
AcDbLine
 10
-635.1612211441442
 20
-368.2522761823965
 30
0.0
 11
-635.1612211441442
 21
-387.7522761823965
 31
0.0
  0
LINE
  5
151
330
88
100
AcDbEntity
  8
LAYER0014
 62
     2
100
AcDbLine
 10
64.83877885585567
 20
-368.2522761823965
 30
0.0
 11
64.83877885585567
 21
-387.7522761823965
 31
0.0
  0
LINE
  5
152
330
88
100
AcDbEntity
  8
LAYER0014
 62
     2
100
AcDbLine
 10
-635.1612211441442
 20
-385.7522761823965
 30
0.0
 11
64.83877885585571
 21
-385.7522761823965
 31
0.0
  0
INSERT
  5
153
330
88
100
AcDbEntity
  8
LAYER0014
 62
     2
100
AcDbBlockReference
  2
_OPEN30
 10
-635.1612211441442
 20
-385.7522761823965
 30
0.0
 41
7.646601831087536
 42
5.031938088706951
 50
180.0
  0
INSERT
  5
154
330
88
100
AcDbEntity
  8
LAYER0014
 62
     2
100
AcDbBlockReference
  2
_OPEN30
 10
64.83877885585567
 20
-385.7522761823965
 30
0.0
 41
7.646601831087536
 42
5.031938088706951
 50
360.0
  0
TEXT
  5
155
330
88
100
AcDbEntity
  8
LAYER0014
 62
     2
100
AcDbText
 10
-297.1612211441442
 20
-383.7522761823965
 30
0.0
 40
10.0
  1
700
 41
0.8842105263157895
  7
DAVECTORFONT
 72
     5
 11
-273.1612211441442
 21
-383.7522761823965
 31
0.0
100
AcDbText
  0
ENDBLK
  5
8A
330
88
100
AcDbEntity
  8
0
100
AcDbBlockEnd
  0
BLOCK
  5
8C
330
8B
100
AcDbEntity
  8
0
100
AcDbBlockBegin
  2
DA_IMAGEDIMGROUP_14
 70
     0
 71
     0
 10
0.0
 20
0.0
 30
0.0
  3
DA_IMAGEDIMGROUP_14
  1

  0
LINE
  5
156
330
8B
100
AcDbEntity
  8
LAYER0014
 62
     2
100
AcDbLine
 10
-490.1612211441444
 20
-100.2522761823966
 30
0.0
 11
-490.1612211441444
 21
-78.7522761823966
 31
0.0
  0
LINE
  5
157
330
8B
100
AcDbEntity
  8
LAYER0014
 62
     2
100
AcDbLine
 10
-470.1612211441444
 20
-100.2522761823966
 30
0.0
 11
-470.1612211441444
 21
-78.7522761823966
 31
0.0
  0
LINE
  5
158
330
8B
100
AcDbEntity
  8
LAYER0014
 62
     2
100
AcDbLine
 10
-490.1612211441444
 20
-80.7522761823966
 30
0.0
 11
-470.1612211441444
 21
-80.7522761823966
 31
0.0
  0
LINE
  5
159
330
8B
100
AcDbEntity
  8
LAYER0014
 62
     2
100
AcDbLine
 10
-461.4112211441444
 20
-80.7522761823966
 30
0.0
 11
-470.1612211441444
 21
-80.7522761823966
 31
0.0
  0
INSERT
  5
15A
330
8B
100
AcDbEntity
  8
LAYER0014
 62
     2
100
AcDbBlockReference
  2
_OPEN30
 10
-470.1612211441444
 20
-80.7522761823966
 30
0.0
 41
7.646601831087536
 42
5.031938088706951
 50
180.0
  0
LINE
  5
15B
330
8B
100
AcDbEntity
  8
LAYER0014
 62
     2
100
AcDbLine
 10
-498.9112211441444
 20
-80.7522761823966
 30
0.0
 11
-490.1612211441444
 21
-80.7522761823966
 31
0.0
  0
INSERT
  5
15C
330
8B
100
AcDbEntity
  8
LAYER0014
 62
     2
100
AcDbBlockReference
  2
_OPEN30
 10
-490.1612211441444
 20
-80.7522761823966
 30
0.0
 41
7.646601831087536
 42
5.031938088706951
 50
360.0
  0
TEXT
  5
15D
330
8B
100
AcDbEntity
  8
LAYER0014
 62
     2
100
AcDbText
 10
-488.1612211441444
 20
-78.7522761823966
 30
0.0
 40
10.0
  1
20
 41
0.9081081081081081
  7
DAVECTORFONT
 72
     5
 11
-472.1612211441444
 21
-78.7522761823966
 31
0.0
100
AcDbText
  0
ENDBLK
  5
8D
330
8B
100
AcDbEntity
  8
0
100
AcDbBlockEnd
  0
BLOCK
  5
8F
330
8E
100
AcDbEntity
  8
0
100
AcDbBlockBegin
  2
DA_IMAGEDIMGROUP_15
 70
     0
 71
     0
 10
0.0
 20
0.0
 30
0.0
  3
DA_IMAGEDIMGROUP_15
  1

  0
LINE
  5
15E
330
8E
100
AcDbEntity
  8
LAYER0014
 62
     2
100
AcDbLine
 10
-635.1612211441442
 20
-233.2522761823967
 30
0.0
 11
-635.1612211441442
 21
-56.2522761823966
 31
0.0
  0
LINE
  5
15F
330
8E
100
AcDbEntity
  8
LAYER0014
 62
     2
100
AcDbLine
 10
-470.1612211441444
 20
-75.7522761823966
 30
0.0
 11
-470.1612211441444
 21
-56.2522761823966
 31
0.0
  0
LINE
  5
160
330
8E
100
AcDbEntity
  8
LAYER0014
 62
     2
100
AcDbLine
 10
-245.1612211441443
 20
-100.2522761823965
 30
0.0
 11
-245.1612211441443
 21
-56.2522761823966
 31
0.0
  0
LINE
  5
161
330
8E
100
AcDbEntity
  8
LAYER0014
 62
     2
100
AcDbLine
 10
189.8387788558559
 20
-133.2522761823962
 30
0.0
 11
189.8387788558559
 21
-56.2522761823966
 31
0.0
  0
LINE
  5
162
330
8E
100
AcDbEntity
  8
LAYER0014
 62
     2
100
AcDbLine
 10
284.8387788558557
 20
-342.2522761823961
 30
0.0
 11
284.8387788558557
 21
-56.2522761823966
 31
0.0
  0
LINE
  5
163
330
8E
100
AcDbEntity
  8
LAYER0014
 62
     2
100
AcDbLine
 10
-635.1612211441442
 20
-58.2522761823966
 30
0.0
 11
-470.1612211441444
 21
-58.2522761823966
 31
0.0
  0
INSERT
  5
164
330
8E
100
AcDbEntity
  8
LAYER0014
 62
     2
100
AcDbBlockReference
  2
_OPEN30
 10
-635.1612211441442
 20
-58.2522761823966
 30
0.0
 41
7.646601831087536
 42
5.031938088706951
 50
180.0
  0
INSERT
  5
165
330
8E
100
AcDbEntity
  8
LAYER0014
 62
     2
100
AcDbBlockReference
  2
_OPEN30
 10
-470.1612211441444
 20
-58.2522761823966
 30
0.0
 41
7.646601831087536
 42
5.031938088706951
 50
360.0
  0
LINE
  5
166
330
8E
100
AcDbEntity
  8
LAYER0014
 62
     2
100
AcDbLine
 10
-470.1612211441444
 20
-58.2522761823966
 30
0.0
 11
-245.1612211441443
 21
-58.2522761823966
 31
0.0
  0
INSERT
  5
167
330
8E
100
AcDbEntity
  8
LAYER0014
 62
     2
100
AcDbBlockReference
  2
_OPEN30
 10
-470.1612211441444
 20
-58.2522761823966
 30
0.0
 41
7.646601831087536
 42
5.031938088706951
 50
180.0
  0
INSERT
  5
168
330
8E
100
AcDbEntity
  8
LAYER0014
 62
     2
100
AcDbBlockReference
  2
_OPEN30
 10
-245.1612211441443
 20
-58.2522761823966
 30
0.0
 41
7.646601831087536
 42
5.031938088706951
 50
360.0
  0
LINE
  5
169
330
8E
100
AcDbEntity
  8
LAYER0014
 62
     2
100
AcDbLine
 10
-245.1612211441443
 20
-58.2522761823966
 30
0.0
 11
189.8387788558559
 21
-58.2522761823966
 31
0.0
  0
INSERT
  5
16A
330
8E
100
AcDbEntity
  8
LAYER0014
 62
     2
100
AcDbBlockReference
  2
_OPEN30
 10
-245.1612211441443
 20
-58.2522761823966
 30
0.0
 41
7.646601831087536
 42
5.031938088706951
 50
180.0
  0
INSERT
  5
16B
330
8E
100
AcDbEntity
  8
LAYER0014
 62
     2
100
AcDbBlockReference
  2
_OPEN30
 10
189.8387788558559
 20
-58.2522761823966
 30
0.0
 41
7.646601831087536
 42
5.031938088706951
 50
360.0
  0
LINE
  5
16C
330
8E
100
AcDbEntity
  8
LAYER0014
 62
     2
100
AcDbLine
 10
189.8387788558559
 20
-58.2522761823966
 30
0.0
 11
284.8387788558557
 21
-58.2522761823966
 31
0.0
  0
INSERT
  5
16D
330
8E
100
AcDbEntity
  8
LAYER0014
 62
     2
100
AcDbBlockReference
  2
_OPEN30
 10
189.8387788558559
 20
-58.2522761823966
 30
0.0
 41
7.646601831087536
 42
5.031938088706951
 50
180.0
  0
INSERT
  5
16E
330
8E
100
AcDbEntity
  8
LAYER0014
 62
     2
100
AcDbBlockReference
  2
_OPEN30
 10
284.8387788558557
 20
-58.2522761823966
 30
0.0
 41
7.646601831087536
 42
5.031938088706951
 50
360.0
  0
TEXT
  5
16F
330
8E
100
AcDbEntity
  8
LAYER0014
 62
     2
100
AcDbText
 10
-564.6612211441443
 20
-56.2522761823966
 30
0.0
 40
10.0
  1
165
 41
0.8842105263157895
  7
DAVECTORFONT
 72
     5
 11
-540.6612211441443
 21
-56.2522761823966
 31
0.0
100
AcDbText
  0
TEXT
  5
170
330
8E
100
AcDbEntity
  8
LAYER0014
 62
     2
100
AcDbText
 10
-377.6612211441444
 20
-56.2522761823966
 30
0.0
 40
10.0
  1
0～300
 41
0.8842105263157895
  7
DAVECTORFONT
 72
     5
 11
-337.6612211441444
 21
-56.2522761823966
 31
0.0
100
AcDbText
  0
TEXT
  5
171
330
8E
100
AcDbEntity
  8
LAYER0014
 62
     2
100
AcDbText
 10
-39.41122114414421
 20
-56.2522761823966
 30
0.0
 40
10.0
  1
435
 41
0.8842105263157895
  7
DAVECTORFONT
 72
     5
 11
-15.41122114414421
 21
-56.2522761823966
 31
0.0
100
AcDbText
  0
TEXT
  5
172
330
8E
100
AcDbEntity
  8
LAYER0014
 62
     2
100
AcDbText
 10
231.5887788558558
 20
-56.2522761823966
 30
0.0
 40
10.0
  1
95
 41
0.9081081081081081
  7
DAVECTORFONT
 72
     5
 11
247.5887788558558
 21
-56.2522761823966
 31
0.0
100
AcDbText
  0
ENDBLK
  5
90
330
8E
100
AcDbEntity
  8
0
100
AcDbBlockEnd
  0
BLOCK
  5
92
330
91
100
AcDbEntity
  8
0
100
AcDbBlockBegin
  2
DA_IMAGEDIMGROUP_16
 70
     0
 71
     0
 10
0.0
 20
0.0
 30
0.0
  3
DA_IMAGEDIMGROUP_16
  1

  0
LINE
  5
173
330
91
100
AcDbEntity
  8
LAYER0014
 62
     2
100
AcDbLine
 10
-638.1612211441442
 20
-265.2522761823967
 30
0.0
 11
-659.6612211441442
 21
-265.2522761823967
 31
0.0
  0
LINE
  5
174
330
91
100
AcDbEntity
  8
LAYER0014
 62
     2
100
AcDbLine
 10
-492.1612211441444
 20
-103.2522761823966
 30
0.0
 11
-659.6612211441442
 21
-103.2522761823966
 31
0.0
  0
LINE
  5
175
330
91
100
AcDbEntity
  8
LAYER0014
 62
     2
100
AcDbLine
 10
-657.6612211441442
 20
-265.2522761823967
 30
0.0
 11
-657.6612211441442
 21
-103.2522761823966
 31
0.0
  0
INSERT
  5
176
330
91
100
AcDbEntity
  8
LAYER0014
 62
     2
100
AcDbBlockReference
  2
_OPEN30
 10
-657.6612211441442
 20
-265.2522761823967
 30
0.0
 41
7.646601831087536
 42
5.031938088706951
 50
270.0
  0
INSERT
  5
177
330
91
100
AcDbEntity
  8
LAYER0014
 62
     2
100
AcDbBlockReference
  2
_OPEN30
 10
-657.6612211441442
 20
-103.2522761823966
 30
0.0
 41
7.646601831087536
 42
5.031938088706951
 50
90.0
  0
TEXT
  5
178
330
91
100
AcDbEntity
  8
LAYER0014
 62
     2
100
AcDbText
 10
-659.6612211441442
 20
-196.2522761823967
 30
0.0
 40
10.0
  1
162
 50
90.0
 41
0.8842105263157895
  7
DAVECTORFONT
 72
     5
 11
-659.6612211441442
 21
-172.2522761823967
 31
0.0
100
AcDbText
  0
ENDBLK
  5
93
330
91
100
AcDbEntity
  8
0
100
AcDbBlockEnd
  0
BLOCK
  5
95
330
94
100
AcDbEntity
  8
0
100
AcDbBlockBegin
  2
DA_IMAGEDIMGROUP_17
 70
     0
 71
     0
 10
0.0
 20
0.0
 30
0.0
  3
DA_IMAGEDIMGROUP_17
  1

  0
LINE
  5
179
330
94
100
AcDbEntity
  8
LAYER0014
 62
     2
100
AcDbLine
 10
-358.1612211441442
 20
-273.2522761823965
 30
0.0
 11
-325.1479067172872
 21
-273.2522761823965
 31
0.0
  0
LINE
  5
17A
330
94
100
AcDbEntity
  8
LAYER0014
 62
     2
100
AcDbLine
 10
-327.1479067172872
 20
-273.2522761823965
 30
0.0
 11
-327.1479067172872
 21
-265.2522761823965
 31
0.0
  0
LINE
  5
17B
330
94
100
AcDbEntity
  8
LAYER0014
 62
     2
100
AcDbLine
 10
-467.1612211441444
 20
-103.2522761823966
 30
0.0
 11
-325.1479067172872
 21
-103.2522761823966
 31
0.0
  0
LINE
  5
17C
330
94
100
AcDbEntity
  8
LAYER0014
 62
     2
100
AcDbLine
 10
-327.1479067172872
 20
-288.6383261823966
 30
0.0
 11
-327.1479067172872
 21
-273.2522761823965
 31
0.0
  0
INSERT
  5
17D
330
94
100
AcDbEntity
  8
LAYER0014
 62
     2
100
AcDbBlockReference
  2
_OPEN30
 10
-327.1479067172872
 20
-273.2522761823965
 30
0.0
 41
7.646601831087536
 42
5.031938088706951
 50
90.0
  0
LINE
  5
17E
330
94
100
AcDbEntity
  8
LAYER0014
 62
     2
100
AcDbLine
 10
-327.1479067172872
 20
-265.2522761823965
 30
0.0
 11
-327.1479067172872
 21
-165.2522761823965
 31
0.0
  0
INSERT
  5
17F
330
94
100
AcDbEntity
  8
LAYER0014
 62
     2
100
AcDbBlockReference
  2
_OPEN30
 10
-327.1479067172872
 20
-265.2522761823965
 30
0.0
 41
7.646601831087536
 42
5.031938088706951
 50
270.0
  0
INSERT
  5
180
330
94
100
AcDbEntity
  8
LAYER0014
 62
     2
100
AcDbBlockReference
  2
_OPEN30
 10
-327.1479067172872
 20
-165.2522761823965
 30
0.0
 41
7.646601831087536
 42
5.031938088706951
 50
90.0
  0
LINE
  5
181
330
94
100
AcDbEntity
  8
LAYER0014
 62
     2
100
AcDbLine
 10
-327.1479067172872
 20
-165.2522761823965
 30
0.0
 11
-327.1479067172872
 21
-103.2522761823966
 31
0.0
  0
INSERT
  5
182
330
94
100
AcDbEntity
  8
LAYER0014
 62
     2
100
AcDbBlockReference
  2
_OPEN30
 10
-327.1479067172872
 20
-165.2522761823965
 30
0.0
 41
7.646601831087536
 42
5.031938088706951
 50
270.0
  0
INSERT
  5
183
330
94
100
AcDbEntity
  8
LAYER0014
 62
     2
100
AcDbBlockReference
  2
_OPEN30
 10
-327.1479067172872
 20
-103.2522761823966
 30
0.0
 41
7.646601831087536
 42
5.031938088706951
 50
90.0
  0
TEXT
  5
184
330
94
100
AcDbEntity
  8
LAYER0014
 62
     2
100
AcDbText
 10
-329.1479067172872
 20
-288.6383261823966
 30
0.0
 40
10.0
  1
8
 50
90.0
 41
0.9882352941176471
  7
DAVECTORFONT
 72
     5
 11
-329.1479067172872
 21
-280.6383261823966
 31
0.0
100
AcDbText
  0
TEXT
  5
185
330
94
100
AcDbEntity
  8
LAYER0014
 62
     2
100
AcDbText
 10
-329.1479067172872
 20
-235.2522761823965
 30
0.0
 40
10.0
  1
100
 50
90.0
 41
0.8842105263157895
  7
DAVECTORFONT
 72
     5
 11
-329.1479067172872
 21
-211.2522761823965
 31
0.0
100
AcDbText
  0
TEXT
  5
186
330
94
100
AcDbEntity
  8
LAYER0014
 62
     2
100
AcDbText
 10
-329.1479067172872
 20
-142.2522761823965
 30
0.0
 40
10.0
  1
62
 50
90.0
 41
0.9081081081081081
  7
DAVECTORFONT
 72
     5
 11
-329.1479067172872
 21
-126.2522761823965
 31
0.0
100
AcDbText
  0
ENDBLK
  5
96
330
94
100
AcDbEntity
  8
0
100
AcDbBlockEnd
  0
BLOCK
  5
98
330
97
100
AcDbEntity
  8
0
100
AcDbBlockBegin
  2
DA_IMAGEDIMGROUP_18
 70
     0
 71
     0
 10
0.0
 20
0.0
 30
0.0
  3
DA_IMAGEDIMGROUP_18
  1

  0
LINE
  5
187
330
97
100
AcDbEntity
  8
LAYER0014
 62
     2
100
AcDbLine
 10
67.83877885585567
 20
-265.2522761823963
 30
0.0
 11
264.3387788558557
 21
-265.2522761823963
 31
0.0
  0
LINE
  5
188
330
97
100
AcDbEntity
  8
LAYER0014
 62
     2
100
AcDbLine
 10
192.8387788558559
 20
-145.2522761823962
 30
0.0
 11
264.3387788558557
 21
-145.2522761823962
 31
0.0
  0
LINE
  5
189
330
97
100
AcDbEntity
  8
LAYER0014
 62
     2
100
AcDbLine
 10
262.3387788558557
 20
-265.2522761823963
 30
0.0
 11
262.3387788558557
 21
-145.2522761823962
 31
0.0
  0
INSERT
  5
18A
330
97
100
AcDbEntity
  8
LAYER0014
 62
     2
100
AcDbBlockReference
  2
_OPEN30
 10
262.3387788558557
 20
-265.2522761823963
 30
0.0
 41
7.646601831087536
 42
5.031938088706951
 50
270.0
  0
INSERT
  5
18B
330
97
100
AcDbEntity
  8
LAYER0014
 62
     2
100
AcDbBlockReference
  2
_OPEN30
 10
262.3387788558557
 20
-145.2522761823962
 30
0.0
 41
7.646601831087536
 42
5.031938088706951
 50
90.0
  0
TEXT
  5
18C
330
97
100
AcDbEntity
  8
LAYER0014
 62
     2
100
AcDbText
 10
260.3387788558557
 20
-217.2522761823963
 30
0.0
 40
10.0
  1
120
 50
90.0
 41
0.8842105263157895
  7
DAVECTORFONT
 72
     5
 11
260.3387788558557
 21
-193.2522761823963
 31
0.0
100
AcDbText
  0
ENDBLK
  5
99
330
97
100
AcDbEntity
  8
0
100
AcDbBlockEnd
  0
BLOCK
  5
9B
330
9A
100
AcDbEntity
  8
0
100
AcDbBlockBegin
  2
DA_IMAGEDIMGROUP_19
 70
     0
 71
     0
 10
0.0
 20
0.0
 30
0.0
  3
DA_IMAGEDIMGROUP_19
  1

  0
LINE
  5
18D
330
9A
100
AcDbEntity
  8
LAYER0014
 62
     2
100
AcDbLine
 10
267.3387788558557
 20
-145.2522761823962
 30
0.0
 11
309.3387788558557
 21
-145.2522761823962
 31
0.0
  0
LINE
  5
18E
330
9A
100
AcDbEntity
  8
LAYER0014
 62
     2
100
AcDbLine
 10
287.8387788558557
 20
-345.2522761823961
 30
0.0
 11
309.3387788558557
 21
-345.2522761823961
 31
0.0
  0
LINE
  5
18F
330
9A
100
AcDbEntity
  8
LAYER0014
 62
     2
100
AcDbLine
 10
307.3387788558557
 20
-345.2522761823961
 30
0.0
 11
307.3387788558557
 21
-145.2522761823962
 31
0.0
  0
INSERT
  5
190
330
9A
100
AcDbEntity
  8
LAYER0014
 62
     2
100
AcDbBlockReference
  2
_OPEN30
 10
307.3387788558557
 20
-345.2522761823961
 30
0.0
 41
7.646601831087536
 42
5.031938088706951
 50
270.0
  0
INSERT
  5
191
330
9A
100
AcDbEntity
  8
LAYER0014
 62
     2
100
AcDbBlockReference
  2
_OPEN30
 10
307.3387788558557
 20
-145.2522761823962
 30
0.0
 41
7.646601831087536
 42
5.031938088706951
 50
90.0
  0
TEXT
  5
192
330
9A
100
AcDbEntity
  8
LAYER0014
 62
     2
100
AcDbText
 10
305.3387788558557
 20
-257.2522761823962
 30
0.0
 40
10.0
  1
200
 50
90.0
 41
0.8842105263157895
  7
DAVECTORFONT
 72
     5
 11
305.3387788558557
 21
-233.2522761823962
 31
0.0
100
AcDbText
  0
ENDBLK
  5
9C
330
9A
100
AcDbEntity
  8
0
100
AcDbBlockEnd
  0
BLOCK
  5
9E
330
9D
100
AcDbEntity
  8
0
100
AcDbBlockBegin
  2
DA_IMAGEDIMGROUP_20
 70
     0
 71
     0
 10
0.0
 20
0.0
 30
0.0
  3
DA_IMAGEDIMGROUP_20
  1

  0
LINE
  5
193
330
9D
100
AcDbEntity
  8
LAYER0014
 62
     2
100
AcDbLine
 10
-635.1612211441442
 20
-390.7522761823965
 30
0.0
 11
-635.1612211441442
 21
-410.2522761823965
 31
0.0
  0
LINE
  5
194
330
9D
100
AcDbEntity
  8
LAYER0014
 62
     2
100
AcDbLine
 10
284.8387788558557
 20
-348.2522761823961
 30
0.0
 11
284.8387788558557
 21
-410.2522761823965
 31
0.0
  0
LINE
  5
195
330
9D
100
AcDbEntity
  8
LAYER0014
 62
     2
100
AcDbLine
 10
-635.1612211441442
 20
-408.2522761823965
 30
0.0
 11
284.8387788558557
 21
-408.2522761823965
 31
0.0
  0
INSERT
  5
196
330
9D
100
AcDbEntity
  8
LAYER0014
 62
     2
100
AcDbBlockReference
  2
_OPEN30
 10
-635.1612211441442
 20
-408.2522761823965
 30
0.0
 41
7.646601831087536
 42
5.031938088706951
 50
180.0
  0
INSERT
  5
197
330
9D
100
AcDbEntity
  8
LAYER0014
 62
     2
100
AcDbBlockReference
  2
_OPEN30
 10
284.8387788558557
 20
-408.2522761823965
 30
0.0
 41
7.646601831087536
 42
5.031938088706951
 50
360.0
  0
TEXT
  5
198
330
9D
100
AcDbEntity
  8
LAYER0014
 62
     2
100
AcDbText
 10
-201.1612211441442
 20
-406.2522761823965
 30
0.0
 40
10.0
  1
MAX:995
 41
0.9116279069767441
  7
DAVECTORFONT
 72
     5
 11
-145.1612211441442
 21
-406.2522761823965
 31
0.0
100
AcDbText
  0
ENDBLK
  5
9F
330
9D
100
AcDbEntity
  8
0
100
AcDbBlockEnd
  0
BLOCK
  5
A1
330
A0
100
AcDbEntity
  8
0
100
AcDbBlockBegin
  2
DA_IMAGEDIMGROUP_21
 70
     0
 71
     0
 10
0.0
 20
0.0
 30
0.0
  3
DA_IMAGEDIMGROUP_21
  1

  0
LINE
  5
199
330
A0
100
AcDbEntity
  8
LAYER0014
 62
     2
100
AcDbLine
 10
399.9792784098253
 20
-318.2522761823954
 30
0.0
 11
614.9792784098249
 21
-318.2522761823954
 31
0.0
  0
INSERT
  5
19A
330
A0
100
AcDbEntity
  8
LAYER0014
 62
     2
100
AcDbBlockReference
  2
_OPEN30
 10
399.9792784098253
 20
-318.2522761823954
 30
0.0
 41
7.646601831087536
 42
5.031938088706951
 50
180.0
  0
INSERT
  5
19B
330
A0
100
AcDbEntity
  8
LAYER0014
 62
     2
100
AcDbBlockReference
  2
_OPEN30
 10
614.9792784098249
 20
-318.2522761823954
 30
0.0
 41
7.646601831087536
 42
5.031938088706951
 50
360.0
  0
LINE
  5
19C
330
A0
100
AcDbEntity
  8
LAYER0014
 62
     2
100
AcDbLine
 10
399.9792784098253
 20
-276.2522761823956
 30
0.0
 11
399.9792784098253
 21
-320.2522761823954
 31
0.0
  0
LINE
  5
19D
330
A0
100
AcDbEntity
  8
LAYER0014
 62
     2
100
AcDbLine
 10
614.9792784098249
 20
-276.2522761823955
 30
0.0
 11
614.9792784098249
 21
-320.2522761823954
 31
0.0
  0
TEXT
  5
19E
330
A0
100
AcDbEntity
  8
LAYER0014
 62
     2
100
AcDbText
 10
495.4792784098252
 20
-316.2522761823954
 30
0.0
 40
10.0
  1
215
 41
0.8842105263157895
  7
DAVECTORFONT
 72
     5
 11
519.4792784098252
 21
-316.2522761823954
 31
0.0
100
AcDbText
  0
ENDBLK
  5
A2
330
A0
100
AcDbEntity
  8
0
100
AcDbBlockEnd
  0
BLOCK
  5
A4
330
A3
100
AcDbEntity
  8
0
100
AcDbBlockBegin
  2
GROUP_8
 70
     0
 71
     0
 10
0.0
 20
0.0
 30
0.0
  3
GROUP_8
  1

  0
LINE
  5
19F
330
A3
100
AcDbEntity
  8
0
  6
CENTER
 62
     7
100
AcDbLine
 10
422.6029438001783
 20
415.7482158786798
 30
0.0
 11
387.8029438001784
 21
415.7482158786798
 31
0.0
  0
LINE
  5
1A0
330
A3
100
AcDbEntity
  8
0
  6
CENTER
 62
     2
100
AcDbLine
 10
405.2029438001783
 20
433.1482158786798
 30
0.0
 11
405.2029438001783
 21
398.3482158786798
 31
0.0
  0
ENDBLK
  5
A5
330
A3
100
AcDbEntity
  8
0
100
AcDbBlockEnd
  0
BLOCK
  5
A7
330
A6
100
AcDbEntity
  8
0
100
AcDbBlockBegin
  2
DA_IMAGEDIMGROUP_22
 70
     0
 71
     0
 10
0.0
 20
0.0
 30
0.0
  3
DA_IMAGEDIMGROUP_22
  1

  0
LINE
  5
1A1
330
A6
100
AcDbEntity
  8
LAYER0014
 62
     2
100
AcDbLine
 10
445.2029438001784
 20
397.7482158786798
 30
0.0
 11
445.2029438001784
 21
376.2482158786798
 31
0.0
  0
LINE
  5
1A2
330
A6
100
AcDbEntity
  8
LAYER0014
 62
     2
100
AcDbLine
 10
465.2029438001784
 20
401.7483404579388
 30
0.0
 11
465.2029438001784
 21
376.2482158786798
 31
0.0
  0
LINE
  5
1A3
330
A6
100
AcDbEntity
  8
LAYER0014
 62
     2
100
AcDbLine
 10
445.2029438001784
 20
378.2482158786798
 30
0.0
 11
465.2029438001784
 21
378.2482158786798
 31
0.0
  0
LINE
  5
1A4
330
A6
100
AcDbEntity
  8
LAYER0014
 62
     2
100
AcDbLine
 10
473.9529438001784
 20
378.2482158786798
 30
0.0
 11
465.2029438001784
 21
378.2482158786798
 31
0.0
  0
INSERT
  5
1A5
330
A6
100
AcDbEntity
  8
LAYER0014
 62
     2
100
AcDbBlockReference
  2
_OPEN30
 10
465.2029438001784
 20
378.2482158786798
 30
0.0
 41
7.646601831087536
 42
5.031938088706951
 50
180.0
  0
LINE
  5
1A6
330
A6
100
AcDbEntity
  8
LAYER0014
 62
     2
100
AcDbLine
 10
436.4529438001784
 20
378.2482158786798
 30
0.0
 11
445.2029438001784
 21
378.2482158786798
 31
0.0
  0
INSERT
  5
1A7
330
A6
100
AcDbEntity
  8
LAYER0014
 62
     2
100
AcDbBlockReference
  2
_OPEN30
 10
445.2029438001784
 20
378.2482158786798
 30
0.0
 41
7.646601831087536
 42
5.031938088706951
 50
360.0
  0
TEXT
  5
1A8
330
A6
100
AcDbEntity
  8
LAYER0014
 62
     2
100
AcDbText
 10
447.2029438001784
 20
380.2482158786798
 30
0.0
 40
10.0
  1
20
 41
0.9081081081081081
  7
DAVECTORFONT
 72
     5
 11
463.2029438001784
 21
380.2482158786798
 31
0.0
100
AcDbText
  0
ENDBLK
  5
A8
330
A6
100
AcDbEntity
  8
0
100
AcDbBlockEnd
  0
BLOCK
  5
AA
330
A9
100
AcDbEntity
  8
0
100
AcDbBlockBegin
  2
DA_IMAGEDIMGROUP_23
 70
     0
 71
     0
 10
0.0
 20
0.0
 30
0.0
  3
DA_IMAGEDIMGROUP_23
  1

  0
LINE
  5
1A9
330
A9
100
AcDbEntity
  8
LAYER0014
 62
     2
100
AcDbLine
 10
630.2029438001786
 20
402.2482158786798
 30
0.0
 11
630.2029438001786
 21
376.2482158786798
 31
0.0
  0
LINE
  5
1AA
330
A9
100
AcDbEntity
  8
LAYER0014
 62
     2
100
AcDbLine
 10
655.2029438001785
 20
403.7482158786798
 30
0.0
 11
655.2029438001785
 21
376.2482158786798
 31
0.0
  0
LINE
  5
1AB
330
A9
100
AcDbEntity
  8
LAYER0014
 62
     2
100
AcDbLine
 10
630.2029438001786
 20
378.2482158786798
 30
0.0
 11
655.2029438001785
 21
378.2482158786798
 31
0.0
  0
LINE
  5
1AC
330
A9
100
AcDbEntity
  8
LAYER0014
 62
     2
100
AcDbLine
 10
663.9529438001785
 20
378.2482158786798
 30
0.0
 11
655.2029438001785
 21
378.2482158786798
 31
0.0
  0
INSERT
  5
1AD
330
A9
100
AcDbEntity
  8
LAYER0014
 62
     2
100
AcDbBlockReference
  2
_OPEN30
 10
655.2029438001785
 20
378.2482158786798
 30
0.0
 41
7.646601831087536
 42
5.031938088706951
 50
180.0
  0
LINE
  5
1AE
330
A9
100
AcDbEntity
  8
LAYER0014
 62
     2
100
AcDbLine
 10
621.4529438001786
 20
378.2482158786798
 30
0.0
 11
630.2029438001786
 21
378.2482158786798
 31
0.0
  0
INSERT
  5
1AF
330
A9
100
AcDbEntity
  8
LAYER0014
 62
     2
100
AcDbBlockReference
  2
_OPEN30
 10
630.2029438001786
 20
378.2482158786798
 30
0.0
 41
7.646601831087536
 42
5.031938088706951
 50
360.0
  0
TEXT
  5
1B0
330
A9
100
AcDbEntity
  8
LAYER0014
 62
     2
100
AcDbText
 10
634.7029438001785
 20
380.2482158786798
 30
0.0
 40
10.0
  1
25
 41
0.9081081081081081
  7
DAVECTORFONT
 72
     5
 11
650.7029438001785
 21
380.2482158786798
 31
0.0
100
AcDbText
  0
ENDBLK
  5
AB
330
A9
100
AcDbEntity
  8
0
100
AcDbBlockEnd
  0
BLOCK
  5
AD
330
AC
100
AcDbEntity
  8
0
100
AcDbBlockBegin
  2
DA_IMAGEDIMGROUP_24
 70
     0
 71
     0
 10
0.0
 20
0.0
 30
0.0
  3
DA_IMAGEDIMGROUP_24
  1

  0
LINE
  5
1B1
330
AC
100
AcDbEntity
  8
LAYER0014
 62
     2
100
AcDbLine
 10
445.2029438001784
 20
373.2482158786798
 30
0.0
 11
445.2029438001784
 21
353.7482158786798
 31
0.0
  0
LINE
  5
1B2
330
AC
100
AcDbEntity
  8
LAYER0014
 62
     2
100
AcDbLine
 10
655.2029438001785
 20
373.2482158786798
 30
0.0
 11
655.2029438001785
 21
353.7482158786798
 31
0.0
  0
LINE
  5
1B3
330
AC
100
AcDbEntity
  8
LAYER0014
 62
     2
100
AcDbLine
 10
445.2029438001784
 20
355.7482158786798
 30
0.0
 11
655.2029438001785
 21
355.7482158786798
 31
0.0
  0
INSERT
  5
1B4
330
AC
100
AcDbEntity
  8
LAYER0014
 62
     2
100
AcDbBlockReference
  2
_OPEN30
 10
445.2029438001784
 20
355.7482158786798
 30
0.0
 41
7.646601831087536
 42
5.031938088706951
 50
180.0
  0
INSERT
  5
1B5
330
AC
100
AcDbEntity
  8
LAYER0014
 62
     2
100
AcDbBlockReference
  2
_OPEN30
 10
655.2029438001785
 20
355.7482158786798
 30
0.0
 41
7.646601831087536
 42
5.031938088706951
 50
360.0
  0
TEXT
  5
1B6
330
AC
100
AcDbEntity
  8
LAYER0014
 62
     2
100
AcDbText
 10
538.2029438001785
 20
357.7482158786798
 30
0.0
 40
10.0
  1
210
 41
0.8842105263157895
  7
DAVECTORFONT
 72
     5
 11
562.2029438001785
 21
357.7482158786798
 31
0.0
100
AcDbText
  0
ENDBLK
  5
AE
330
AC
100
AcDbEntity
  8
0
100
AcDbBlockEnd
  0
BLOCK
  5
B0
330
AF
100
AcDbEntity
  8
0
100
AcDbBlockBegin
  2
GROUP_9
 70
     0
 71
     0
 10
0.0
 20
0.0
 30
0.0
  3
GROUP_9
  1

  0
TEXT
  5
1B8
330
AF
100
AcDbEntity
  8
LAYER0013
 62
     2
100
AcDbText
 10
485.2029438001785
 20
324.0677966101696
 30
0.0
 40
12.5
  1
ハンドルジョイント
 41
0.9509433962264153
  7
FDASTYLE0
 72
     5
 11
575.2029438001785
 21
324.0677966101696
 31
0.0
100
AcDbText
  0
LINE
  5
1B9
330
AF
100
AcDbEntity
  8
LAYER0013
 62
     2
100
AcDbLine
 10
483.9529438001785
 20
321.5677966101696
 30
0.0
 11
576.4529438001785
 21
321.5677966101696
 31
0.0
  0
ENDBLK
  5
B1
330
AF
100
AcDbEntity
  8
0
100
AcDbBlockEnd
  0
BLOCK
  5
B3
330
B2
100
AcDbEntity
  8
0
100
AcDbBlockBegin
  2
DA_IMAGEDIMGROUP_25
 70
     0
 71
     0
 10
0.0
 20
0.0
 30
0.0
  3
DA_IMAGEDIMGROUP_25
  1

  0
LINE
  5
1BA
330
B2
100
AcDbEntity
  8
LAYER0014
 62
     2
100
AcDbLine
 10
-395.6612211441442
 20
-235.2522761823966
 30
0.0
 11
-444.661221144144
 21
-235.2522761823966
 31
0.0
  0
LINE
  5
1BB
330
B2
100
AcDbEntity
  8
LAYER0014
 62
     2
100
AcDbLine
 10
-442.661221144144
 20
-265.2522761823965
 30
0.0
 11
-442.661221144144
 21
-235.2522761823966
 31
0.0
  0
INSERT
  5
1BC
330
B2
100
AcDbEntity
  8
LAYER0014
 62
     2
100
AcDbBlockReference
  2
_OPEN30
 10
-442.661221144144
 20
-265.2522761823965
 30
0.0
 41
7.646601831087536
 42
5.031938088706951
 50
270.0
  0
INSERT
  5
1BD
330
B2
100
AcDbEntity
  8
LAYER0014
 62
     2
100
AcDbBlockReference
  2
_OPEN30
 10
-442.661221144144
 20
-235.2522761823966
 30
0.0
 41
7.646601831087536
 42
5.031938088706951
 50
90.0
  0
TEXT
  5
1BE
330
B2
100
AcDbEntity
  8
LAYER0014
 62
     2
100
AcDbText
 10
-444.661221144144
 20
-258.2522761823965
 30
0.0
 40
10.0
  1
30
 50
90.0
 41
0.9081081081081081
  7
DAVECTORFONT
 72
     5
 11
-444.661221144144
 21
-242.2522761823965
 31
0.0
100
AcDbText
  0
ENDBLK
  5
B4
330
B2
100
AcDbEntity
  8
0
100
AcDbBlockEnd
  0
BLOCK
  5
B6
330
B5
100
AcDbEntity
  8
0
100
AcDbBlockBegin
  2
DA_IMAGEDIMGROUP_26
 70
     0
 71
     0
 10
0.0
 20
0.0
 30
0.0
  3
DA_IMAGEDIMGROUP_26
  1

  0
LINE
  5
1BF
330
B5
100
AcDbEntity
  8
LAYER0014
 62
     2
100
AcDbLine
 10
498.479278409825
 20
-268.2522761823962
 30
0.0
 11
498.479278409825
 21
-297.7522761823954
 31
0.0
  0
LINE
  5
1C0
330
B5
100
AcDbEntity
  8
LAYER0014
 62
     2
100
AcDbLine
 10
516.4792784098249
 20
-268.2522761823962
 30
0.0
 11
516.4792784098249
 21
-297.7522761823954
 31
0.0
  0
LINE
  5
1C1
330
B5
100
AcDbEntity
  8
LAYER0014
 62
     2
100
AcDbLine
 10
498.479278409825
 20
-295.7522761823954
 30
0.0
 11
516.4792784098249
 21
-295.7522761823954
 31
0.0
  0
LINE
  5
1C2
330
B5
100
AcDbEntity
  8
LAYER0014
 62
     2
100
AcDbLine
 10
462.7245239008703
 20
-295.7522761823954
 30
0.0
 11
498.479278409825
 21
-295.7522761823954
 31
0.0
  0
INSERT
  5
1C3
330
B5
100
AcDbEntity
  8
LAYER0014
 62
     2
100
AcDbBlockReference
  2
_OPEN30
 10
498.479278409825
 20
-295.7522761823954
 30
0.0
 41
7.646601831087536
 42
5.031938088706951
 50
360.0
  0
LINE
  5
1C4
330
B5
100
AcDbEntity
  8
LAYER0014
 62
     2
100
AcDbLine
 10
525.2292784098249
 20
-295.7522761823954
 30
0.0
 11
516.4792784098249
 21
-295.7522761823954
 31
0.0
  0
INSERT
  5
1C5
330
B5
100
AcDbEntity
  8
LAYER0014
 62
     2
100
AcDbBlockReference
  2
_OPEN30
 10
516.4792784098249
 20
-295.7522761823954
 30
0.0
 41
7.646601831087536
 42
5.031938088706951
 50
180.0
  0
TEXT
  5
1C6
330
B5
100
AcDbEntity
  8
LAYER0014
 62
     2
100
AcDbText
 10
462.7245239008703
 20
-293.7522761823954
 30
0.0
 40
10.0
  1
18
 41
0.9081081081081081
  7
DAVECTORFONT
 72
     5
 11
478.7245239008703
 21
-293.7522761823954
 31
0.0
100
AcDbText
  0
TEXT
  5
1C7
330
B5
100
AcDbEntity
  8
LAYER0014
 62
     2
100
AcDbText
 10
479.9745239008703
 20
-293.7522761823954
 30
0.0
 40
10.0
  1
H7
 41
0.8615384615384616
  7
DAVECTORFONT
 72
     5
 11
495.9745239008703
 21
-293.7522761823954
 31
0.0
100
AcDbText
  0
ENDBLK
  5
B7
330
B5
100
AcDbEntity
  8
0
100
AcDbBlockEnd
  0
BLOCK
  5
B9
330
B8
100
AcDbEntity
  8
0
100
AcDbBlockBegin
  2
DA_IMAGEDIMGROUP_27
 70
     0
 71
     0
 10
0.0
 20
0.0
 30
0.0
  3
DA_IMAGEDIMGROUP_27
  1

  0
LINE
  5
1C8
330
B8
100
AcDbEntity
  8
LAYER0014
 62
     2
100
AcDbLine
 10
519.4792784098249
 20
-261.2522761823962
 30
0.0
 11
540.9792784098249
 21
-261.2522761823962
 31
0.0
  0
LINE
  5
1C9
330
B8
100
AcDbEntity
  8
LAYER0014
 62
     2
100
AcDbLine
 10
538.9792784098249
 20
-265.2522761823961
 30
0.0
 11
538.9792784098249
 21
-261.2522761823962
 31
0.0
  0
LINE
  5
1CA
330
B8
100
AcDbEntity
  8
LAYER0014
 62
     2
100
AcDbLine
 10
538.9792784098249
 20
-280.6383261823962
 30
0.0
 11
538.9792784098249
 21
-265.2522761823961
 31
0.0
  0
INSERT
  5
1CB
330
B8
100
AcDbEntity
  8
LAYER0014
 62
     2
100
AcDbBlockReference
  2
_OPEN30
 10
538.9792784098249
 20
-265.2522761823961
 30
0.0
 41
7.646601831087536
 42
5.031938088706951
 50
90.0
  0
LINE
  5
1CC
330
B8
100
AcDbEntity
  8
LAYER0014
 62
     2
100
AcDbLine
 10
538.9792784098249
 20
-252.5022761823962
 30
0.0
 11
538.9792784098249
 21
-261.2522761823962
 31
0.0
  0
INSERT
  5
1CD
330
B8
100
AcDbEntity
  8
LAYER0014
 62
     2
100
AcDbBlockReference
  2
_OPEN30
 10
538.9792784098249
 20
-261.2522761823962
 30
0.0
 41
7.646601831087536
 42
5.031938088706951
 50
270.0
  0
TEXT
  5
1CE
330
B8
100
AcDbEntity
  8
LAYER0014
 62
     2
100
AcDbText
 10
536.9792784098249
 20
-280.6383261823962
 30
0.0
 40
10.0
  1
4
 50
90.0
 41
0.9333333333333334
  7
DAVECTORFONT
 72
     5
 11
536.9792784098249
 21
-272.6383261823962
 31
0.0
100
AcDbText
  0
ENDBLK
  5
BA
330
B8
100
AcDbEntity
  8
0
100
AcDbBlockEnd
  0
BLOCK
  5
BC
330
BB
100
AcDbEntity
  8
0
100
AcDbBlockBegin
  2
GROUP_10
 70
     0
 71
     0
 10
0.0
 20
0.0
 30
0.0
  3
GROUP_10
  1

  0
LINE
  5
1CF
330
BB
100
AcDbEntity
  8
ZUWAKU
 62
     3
100
AcDbLine
 10
-693.75
 20
481.25
 30
0.0
 11
693.75
 21
481.25
 31
0.0
  0
LINE
  5
1D0
330
BB
100
AcDbEntity
  8
ZUWAKU
 62
     3
100
AcDbLine
 10
-693.75
 20
-481.25
 30
0.0
 11
-693.75
 21
481.25
 31
0.0
  0
LINE
  5
1D1
330
BB
100
AcDbEntity
  8
ZUWAKU
 62
     3
100
AcDbLine
 10
693.75
 20
-481.25
 30
0.0
 11
-693.75
 21
-481.25
 31
0.0
  0
LINE
  5
1D2
330
BB
100
AcDbEntity
  8
ZUWAKU
 62
     3
100
AcDbLine
 10
693.75
 20
481.25
 30
0.0
 11
693.75
 21
-481.25
 31
0.0
  0
ENDBLK
  5
BD
330
BB
100
AcDbEntity
  8
0
100
AcDbBlockEnd
  0
ENDSEC
  0
SECTION
  2
ENTITIES
  0
LINE
  5
1D3
330
1F
100
AcDbEntity
  8
0
 62
     3
100
AcDbLine
 10
-317.6612211441441
 20
-236.2522761823965
 30
0.0
 11
-270.1612211441442
 21
-236.2522761823965
 31
0.0
  0
LINE
  5
1D4
330
1F
100
AcDbEntity
  8
0
 62
     3
100
AcDbLine
 10
-182.1885743429825
 20
-236.2522761823964
 30
0.0
 11
62.33877885585565
 21
-236.2522761823963
 31
0.0
  0
LINE
  5
1D5
330
1F
100
AcDbEntity
  8
0
 62
     3
100
AcDbLine
 10
-635.1612211441442
 20
-236.2522761823967
 30
0.0
 11
-635.1612211441442
 21
-265.2522761823967
 31
0.0
  0
LINE
  5
1D6
330
1F
100
AcDbEntity
  8
0
 62
     3
100
AcDbLine
 10
64.83877885585567
 20
-238.7522761823963
 30
0.0
 11
64.83877885585567
 21
-265.2522761823963
 31
0.0
  0
ARC
  5
1D7
330
1F
100
AcDbEntity
  8
0
 62
     3
100
AcDbCircle
 10
62.33877885585567
 20
-238.7522761823963
 30
0.0
 40
2.5
100
AcDbArc
 50
0.0000000000000114
 51
90.00000000000003
  0
LINE
  5
1D8
330
1F
100
AcDbEntity
  8
0
 62
     3
100
AcDbLine
 10
-609.6362891629887
 20
-236.2522761823967
 30
0.0
 11
-601.9525409970942
 21
-148.4266327649772
 31
0.0
  0
LINE
  5
1D9
330
1F
100
AcDbEntity
  8
0
 62
     3
100
AcDbLine
 10
-490.1612211441444
 20
-104.2522761823966
 30
0.0
 11
-490.1612211441442
 21
-165.2522761823966
 31
0.0
  0
LINE
  5
1DA
330
1F
100
AcDbEntity
  8
0
 62
     3
100
AcDbLine
 10
39.83877885585575
 20
-165.2522761823963
 30
0.0
 11
39.83877885585578
 21
-205.503282660344
 31
0.0
  0
LINE
  5
1DB
330
1F
100
AcDbEntity
  8
0
 62
     3
100
AcDbLine
 10
19.83877885585578
 20
-212.7510429749671
 30
0.0
 11
19.83877885585578
 21
-231.7535093898255
 31
0.0
  0
LINE
  5
1DC
330
1F
100
AcDbEntity
  8
0
 62
     3
100
AcDbLine
 10
-490.1612211441441
 20
-165.2522761823966
 30
0.0
 11
-225.1612211441444
 21
-165.2522761823965
 31
0.0
  0
LINE
  5
1DD
330
1F
100
AcDbEntity
  8
0
 62
     3
100
AcDbLine
 10
14.83877885585575
 20
-165.2522761823964
 30
0.0
 11
39.83877885585575
 21
-165.2522761823963
 31
0.0
  0
LINE
  5
1DE
330
1F
100
AcDbEntity
  8
0
 62
     3
100
AcDbLine
 10
-515.1612211441443
 20
-105.2522761823967
 30
0.0
 11
-490.1612211441444
 21
-105.2522761823966
 31
0.0
  0
LINE
  5
1DF
330
1F
100
AcDbEntity
  8
0
 62
     3
100
AcDbLine
 10
-515.1612211441443
 20
-183.2522761823966
 30
0.0
 11
-485.1612211441442
 21
-183.2522761823966
 31
0.0
  0
LINE
  5
1E0
330
1F
100
AcDbEntity
  8
0
 62
     3
100
AcDbLine
 10
-520.1612211441443
 20
-178.2522761823966
 30
0.0
 11
-520.1612211441441
 21
-165.2522761823966
 31
0.0
  0
ARC
  5
1E1
330
1F
100
AcDbEntity
  8
0
 62
     3
100
AcDbCircle
 10
-515.1612211441443
 20
-178.2522761823966
 30
0.0
 40
5.0
100
AcDbArc
 50
180.0
 51
269.9999999999999
  0
LINE
  5
1E2
330
1F
100
AcDbEntity
  8
0
 62
     3
100
AcDbLine
 10
-520.1612211441441
 20
-165.2522761823966
 30
0.0
 11
-515.1612211441443
 21
-105.2522761823967
 31
0.0
  0
LINE
  5
1E3
330
1F
100
AcDbEntity
  8
0
 62
     3
100
AcDbLine
 10
-518.1716197888411
 20
-108.2522761823966
 30
0.0
 11
-541.1419832576773
 21
-108.2522761823966
 31
0.0
  0
ARC
  5
1E4
330
1F
100
AcDbEntity
  8
0
 62
     3
100
AcDbCircle
 10
-518.1716197888413
 20
-105.2522761823966
 30
0.0
 40
3.0
100
AcDbArc
 50
270.0000000000001
 51
355.2363583092738
  0
LINE
  5
1E5
330
1F
100
AcDbEntity
  8
0
 62
     3
100
AcDbLine
 10
-548.6419832576773
 20
-110.2618951256301
 30
0.0
 11
-594.509620525718
 21
-136.7435878494256
 31
0.0
  0
ARC
  5
1E6
330
1F
100
AcDbEntity
  8
0
 62
     3
100
AcDbCircle
 10
-587.009620525718
 20
-149.7339689061921
 30
0.0
 40
15.0
100
AcDbArc
 50
120.0000000000001
 51
175.0
  0
ARC
  5
1E7
330
1F
100
AcDbEntity
  8
0
 62
     3
100
AcDbCircle
 10
-541.1419832576773
 20
-123.2522761823967
 30
0.0
 40
15.0
100
AcDbArc
 50
90.00000000000051
 51
120.0
  0
LINE
  5
1E8
330
1F
100
AcDbEntity
  8
0
 62
     3
100
AcDbLine
 10
-480.1612211441442
 20
-178.2522761823966
 30
0.0
 11
-480.1612211441441
 21
-165.2522761823966
 31
0.0
  0
ARC
  5
1E9
330
1F
100
AcDbEntity
  8
0
 62
     3
100
AcDbCircle
 10
-485.1612211441442
 20
-178.2522761823966
 30
0.0
 40
5.0
100
AcDbArc
 50
269.9999999999998
 51
360.0
  0
LINE
  5
1EA
330
1F
100
AcDbEntity
  8
0
 62
     3
100
AcDbLine
 10
39.83877885585567
 20
-236.2522761823963
 30
0.0
 11
22.5773116276127
 21
-234.7420934841007
 31
0.0
  0
ARC
  5
1EB
330
1F
100
AcDbEntity
  8
0
 62
     3
100
AcDbCircle
 10
22.83877885585578
 20
-231.7535093898255
 30
0.0
 40
3.0
100
AcDbArc
 50
180.0
 51
264.9999999999999
  0
LINE
  5
1EC
330
1F
100
AcDbEntity
  8
0
 62
     3
100
AcDbLine
 10
37.10024608409874
 20
-208.4918667546193
 30
0.0
 11
22.5773116276127
 21
-209.7624588806918
 31
0.0
  0
ARC
  5
1ED
330
1F
100
AcDbEntity
  8
0
 62
     3
100
AcDbCircle
 10
22.83877885585578
 20
-212.7510429749671
 30
0.0
 40
3.0
100
AcDbArc
 50
95.00000000000001
 51
180.0
  0
ARC
  5
1EE
330
1F
100
AcDbEntity
  8
0
 62
     3
100
AcDbCircle
 10
36.83877885585578
 20
-205.503282660344
 30
0.0
 40
3.0
100
AcDbArc
 50
275.0
 51
360.0
  0
LINE
  5
1EF
330
1F
100
AcDbEntity
  8
0
 62
     3
100
AcDbLine
 10
-445.1612211441441
 20
-165.2522761823966
 30
0.0
 11
-445.1612211441441
 21
-169.2522761823966
 31
0.0
  0
LINE
  5
1F0
330
1F
100
AcDbEntity
  8
0
 62
     3
100
AcDbLine
 10
-445.1612211441442
 20
-169.2522761823966
 30
0.0
 11
-417.4484082230424
 21
-185.2522761823966
 31
0.0
  0
LINE
  5
1F1
330
1F
100
AcDbEntity
  8
0
 62
     3
100
AcDbLine
 10
39.83877885585572
 20
-185.2522761823963
 30
0.0
 11
-467.7241265675618
 21
-185.2522761823966
 31
0.0
  0
LINE
  5
1F2
330
1F
100
AcDbEntity
  8
0
 62
     3
100
AcDbLine
 10
-467.7241265675618
 20
-185.2522761823966
 30
0.0
 11
-467.7241265675618
 21
-203.2522761823966
 31
0.0
  0
LINE
  5
1F3
330
1F
100
AcDbEntity
  8
0
 62
     3
100
AcDbLine
 10
-601.9050414059683
 20
-210.2522761823967
 30
0.0
 11
-505.1612211441442
 21
-210.2522761823967
 31
0.0
  0
ARC
  5
1F4
330
1F
100
AcDbEntity
  8
0
 62
     3
100
AcDbCircle
 10
-601.9050414059683
 20
-205.2522761823967
 30
0.0
 40
5.0
100
AcDbArc
 50
174.9999999999999
 51
269.9999999999999
  0
LINE
  5
1F5
330
1F
100
AcDbEntity
  8
0
 62
     3
100
AcDbLine
 10
-515.1612211441445
 20
-188.2522761823965
 30
0.0
 11
-515.1612211441445
 21
-205.2522761823966
 31
0.0
  0
ARC
  5
1F6
330
1F
100
AcDbEntity
  8
0
 62
     3
100
AcDbCircle
 10
-510.1612211441444
 20
-188.2522761823965
 30
0.0
 40
5.0
100
AcDbArc
 50
134.9999999999997
 51
180.0
  0
ARC
  5
1F7
330
1F
100
AcDbEntity
  8
0
 62
     3
100
AcDbCircle
 10
-510.1612211441444
 20
-205.2522761823966
 30
0.0
 40
5.0
100
AcDbArc
 50
180.0
 51
225.0000000000003
  0
LINE
  5
1F8
330
1F
100
AcDbEntity
  8
0
 62
     3
100
AcDbLine
 10
-485.1612211441441
 20
-187.2522761823966
 30
0.0
 11
-485.1612211441441
 21
-236.2522761823966
 31
0.0
  0
LINE
  5
1F9
330
1F
100
AcDbEntity
  8
0
 62
     3
100
AcDbLine
 10
-500.1612211441442
 20
-215.2522761823967
 30
0.0
 11
-500.1612211441441
 21
-236.2522761823966
 31
0.0
  0
ARC
  5
1FA
330
1F
100
AcDbEntity
  8
0
 62
     3
100
AcDbCircle
 10
-505.1612211441442
 20
-215.2522761823967
 30
0.0
 40
5.0
100
AcDbArc
 50
0.0000000000000114
 51
90.00000000000001
  0
LINE
  5
1FB
330
1F
100
AcDbEntity
  8
0
 62
     3
100
AcDbLine
 10
-480.1612211441441
 20
-182.2522761823966
 30
0.0
 11
-422.6445606457491
 21
-182.2522761823966
 31
0.0
  0
ARC
  5
1FC
330
1F
100
AcDbEntity
  8
0
 62
     3
100
AcDbCircle
 10
-480.1612211441441
 20
-187.2522761823966
 30
0.0
 40
5.0
100
AcDbArc
 50
90.00000000000004
 51
180.0
  0
LINE
  5
1FD
330
1F
100
AcDbEntity
  8
0
 62
     3
100
AcDbLine
 10
-392.6612211441442
 20
-235.2522761823966
 30
0.0
 11
-347.6612211441442
 21
-235.2522761823965
 31
0.0
  0
LINE
  5
1FE
330
1F
100
AcDbEntity
  8
0
 62
     3
100
AcDbLine
 10
-417.161221144144
 20
-244.2522761823967
 30
0.0
 11
-402.6478980818015
 21
-244.2522761823965
 31
0.0
  0
LINE
  5
1FF
330
1F
100
AcDbEntity
  8
0
 62
     3
100
AcDbLine
 10
-337.6745442064869
 20
-244.2522761823965
 30
0.0
 11
-323.1612211441441
 21
-244.2522761823965
 31
0.0
  0
LINE
  5
200
330
1F
100
AcDbEntity
  8
0
 62
     3
100
AcDbLine
 10
-395.8216434125858
 20
-240.4238762580284
 30
0.0
 11
-392.6612211441442
 21
-235.2522761823966
 31
0.0
  0
ARC
  5
201
330
1F
100
AcDbEntity
  8
0
 62
     3
100
AcDbCircle
 10
-402.6478980818015
 20
-236.2522761823966
 30
0.0
 40
8.0
100
AcDbArc
 50
270.0000000000001
 51
328.5704343851615
  0
LINE
  5
202
330
1F
100
AcDbEntity
  8
0
 62
     3
100
AcDbLine
 10
-347.6612211441442
 20
-235.2522761823965
 30
0.0
 11
-344.5007988757026
 21
-240.4238762580283
 31
0.0
  0
ARC
  5
203
330
1F
100
AcDbEntity
  8
0
 62
     3
100
AcDbCircle
 10
-337.6745442064869
 20
-236.2522761823965
 30
0.0
 40
8.0
100
AcDbArc
 50
211.4295656148385
 51
269.9999999999999
  0
LINE
  5
204
330
1F
100
AcDbEntity
  8
0
 62
     3
100
AcDbLine
 10
-490.1612211441445
 20
351.73068464253
 30
0.0
 11
-490.1612211441444
 21
145.73068464253
 31
0.0
  0
LINE
  5
205
330
1F
100
AcDbEntity
  8
0
 62
     3
100
AcDbLine
 10
-515.1612211441443
 20
148.73068464253
 30
0.0
 11
-515.1612211441445
 21
348.73068464253
 31
0.0
  0
LINE
  5
206
330
1F
100
AcDbEntity
  8
0
 62
     3
100
AcDbLine
 10
-635.1612211441446
 20
321.2306846425299
 30
0.0
 11
-635.1612211441444
 21
258.2306846425305
 31
0.0
  0
LINE
  5
207
330
1F
100
AcDbEntity
  8
0
 62
     3
100
AcDbLine
 10
-520.1612211441443
 20
148.73068464253
 30
0.0
 11
-490.1612211441444
 21
148.73068464253
 31
0.0
  0
LINE
  5
208
330
1F
100
AcDbEntity
  8
0
 62
     3
100
AcDbLine
 10
-518.1612211441461
 20
151.73068464253
 30
0.0
 11
-600.1612211441445
 21
151.73068464253
 31
0.0
  0
ARC
  5
209
330
1F
100
AcDbEntity
  8
0
 62
     3
100
AcDbCircle
 10
-518.1612211441461
 20
148.73068464253
 30
0.0
 40
3.0
100
AcDbArc
 50
0.0000000000000114
 51
89.99999999999999
  0
LINE
  5
20A
330
1F
100
AcDbEntity
  8
0
 62
     3
100
AcDbLine
 10
-602.7313235557855
 20
282.5738194755106
 30
0.0
 11
-602.7313235557853
 21
214.8875498095442
 31
0.0
  0
LINE
  5
20B
330
1F
100
AcDbEntity
  8
0
 62
     3
100
AcDbLine
 10
39.83877885585561
 20
202.7306846425303
 30
0.0
 11
39.83877885585561
 21
168.7306846425303
 31
0.0
  0
LINE
  5
20C
330
1F
100
AcDbEntity
  8
0
 62
     3
100
AcDbLine
 10
-445.1612211441444
 20
168.73068464253
 30
0.0
 11
-245.1612211441444
 21
168.7306846425302
 31
0.0
  0
LINE
  5
20D
330
1F
100
AcDbEntity
  8
0
 62
     3
100
AcDbLine
 10
14.83877885585561
 20
168.7306846425304
 30
0.0
 11
39.83877885585561
 21
168.7306846425303
 31
0.0
  0
LINE
  5
20E
330
1F
100
AcDbEntity
  8
0
 62
     3
100
AcDbLine
 10
-448.1612211441454
 20
171.73068464253
 30
0.0
 11
-470.1612211441444
 21
171.73068464253
 31
0.0
  0
LINE
  5
20F
330
1F
100
AcDbEntity
  8
0
 62
     3
100
AcDbLine
 10
-245.1612211441444
 20
213.5806846425301
 30
0.0
 11
-445.1612211441445
 21
213.58068464253
 31
0.0
  0
LINE
  5
210
330
1F
100
AcDbEntity
  8
0
 62
     3
100
AcDbLine
 10
-447.0112211441426
 20
211.7306846425299
 30
0.0
 11
-467.6612211441444
 21
211.73068464253
 31
0.0
  0
ARC
  5
211
330
1F
100
AcDbEntity
  8
0
 62
     3
100
AcDbCircle
 10
-448.1612211441454
 20
168.7306846425299
 30
0.0
 40
3.0
100
AcDbArc
 50
0.0000000000000114
 51
90.00000000000003
  0
ARC
  5
212
330
1F
100
AcDbEntity
  8
0
 62
     3
100
AcDbCircle
 10
-447.0112211441426
 20
213.5806846425299
 30
0.0
 40
1.85
100
AcDbArc
 50
269.9999999999999
 51
360.0
  0
ARC
  5
213
330
1F
100
AcDbEntity
  8
0
 62
     3
100
AcDbCircle
 10
-467.6612211441442
 20
231.73068464253
 30
0.0
 40
20.0
100
AcDbArc
 50
262.819244218541
 51
269.9999999999998
  0
LINE
  5
214
330
1F
100
AcDbEntity
  8
0
 62
     3
100
AcDbLine
 10
-470.1612211441445
 20
351.73068464253
 30
0.0
 11
-470.1612211441444
 21
145.73068464253
 31
0.0
  0
LINE
  5
215
330
1F
100
AcDbEntity
  8
0
 62
     3
100
AcDbLine
 10
-470.1612211441444
 20
145.73068464253
 30
0.0
 11
-490.1612211441444
 21
145.73068464253
 31
0.0
  0
ARC
  5
216
330
1F
100
AcDbEntity
  8
0
 62
     3
100
AcDbCircle
 10
-523.1612211441461
 20
148.73068464253
 30
0.0
 40
3.0
100
AcDbArc
 50
0.0000000000000114
 51
89.99999999999999
  0
LINE
  5
217
330
1F
100
AcDbEntity
  8
0
 62
     3
100
AcDbLine
 10
-545.1612211441444
 20
335.7306846425299
 30
0.0
 11
-545.1612211441444
 21
161.73068464253
 31
0.0
  0
LINE
  5
218
330
1F
100
AcDbEntity
  8
0
 62
     3
100
AcDbLine
 10
-595.1612211441444
 20
136.23068464253
 30
0.0
 11
-474.0541949200452
 21
136.23068464253
 31
0.0
  0
ARC
  5
219
330
1F
100
AcDbEntity
  8
0
 62
     3
100
AcDbCircle
 10
-474.0541949200452
 20
86.23068464253004
 30
0.0
 40
50.0
100
AcDbArc
 50
60.34815460874413
 51
90.00000000000003
  0
LINE
  5
21A
330
1F
100
AcDbEntity
  8
0
 62
     3
100
AcDbLine
 10
-101.2682473682438
 20
136.2306846425303
 30
0.0
 11
24.83877885585538
 21
136.2306846425304
 31
0.0
  0
ARC
  5
21B
330
1F
100
AcDbEntity
  8
0
 62
     3
100
AcDbCircle
 10
-101.2682473682438
 20
86.23068464253029
 30
0.0
 40
50.0
100
AcDbArc
 50
90.00000000000003
 51
119.6518453912559
  0
LINE
  5
21C
330
1F
100
AcDbEntity
  8
0
 62
     3
100
AcDbLine
 10
64.83877885585538
 20
176.2306846425304
 30
0.0
 11
64.83877885585538
 21
202.7306846425303
 31
0.0
  0
LINE
  5
21D
330
1F
100
AcDbEntity
  8
0
 62
     3
100
AcDbLine
 10
64.83877885585532
 20
294.7306846425303
 30
0.0
 11
64.83877885585527
 21
321.2306846425304
 31
0.0
  0
ARC
  5
21E
330
1F
100
AcDbEntity
  8
0
 62
     3
100
AcDbCircle
 10
24.83877885585538
 20
176.2306846425304
 30
0.0
 40
40.0
100
AcDbArc
 50
269.9999999999999
 51
360.0
  0
ARC
  5
21F
330
1F
100
AcDbEntity
  8
0
 62
     3
100
AcDbCircle
 10
-205.1612211441446
 20
268.7306846425303
 30
0.0
 40
160.0
100
AcDbArc
 50
269.9999999999999
 51
299.6518453912559
  0
LINE
  5
220
330
1F
100
AcDbEntity
  8
0
 62
     3
100
AcDbLine
 10
-360.6612211441445
 20
108.7306846425301
 30
0.0
 11
-205.1612211441445
 21
108.7306846425302
 31
0.0
  0
ARC
  5
221
330
1F
100
AcDbEntity
  8
0
 62
     3
100
AcDbCircle
 10
-270.1612211441444
 20
128.7306846425302
 30
0.0
 40
20.0
100
AcDbArc
 50
90.00000000000003
 51
269.9999999999999
  0
ARC
  5
222
330
1F
100
AcDbEntity
  8
0
 62
     3
100
AcDbCircle
 10
-302.1612211441444
 20
128.7306846425301
 30
0.0
 40
12.0
100
AcDbArc
 50
269.9999999999999
 51
360.0
  0
LINE
  5
223
330
1F
100
AcDbEntity
  8
0
 62
     3
100
AcDbLine
 10
-270.1612211441445
 20
148.7306846425302
 30
0.0
 11
-245.1612211441445
 21
148.7306846425302
 31
0.0
  0
ARC
  5
224
330
1F
100
AcDbEntity
  8
0
 62
     3
100
AcDbCircle
 10
-190.1612211441444
 20
128.7306846425302
 30
0.0
 40
20.0
100
AcDbArc
 50
293.4927072537847
 51
90.0
  0
ARC
  5
225
330
1F
100
AcDbEntity
  8
0
 62
     3
100
AcDbCircle
 10
-159.1229478181578
 20
136.5169282131716
 30
0.0
 40
12.0
100
AcDbArc
 50
194.0825792559791
 51
289.1986751275745
  0
ARC
  5
226
330
1F
100
AcDbEntity
  8
0
 62
     3
100
AcDbCircle
 10
-430.1612211441444
 20
144.8076361883974
 30
0.0
 40
18.0
100
AcDbArc
 50
204.7497913468927
 51
283.6937413556324
  0
ARC
  5
227
330
1F
100
AcDbEntity
  8
0
 62
     3
100
AcDbCircle
 10
-370.1612211441446
 20
268.73068464253
 30
0.0
 40
160.0
100
AcDbArc
 50
240.3481546087441
 51
266.5987319533956
  0
ARC
  5
228
330
1F
100
AcDbEntity
  8
0
 62
     3
100
AcDbCircle
 10
-421.7485647557136
 20
119.9187362677376
 30
0.0
 40
2.5
100
AcDbArc
 50
250.8805481237119
 51
341.7900431357169
  0
ARC
  5
229
330
1F
100
AcDbEntity
  8
0
 62
     3
100
AcDbCircle
 10
-370.1612211441444
 20
128.7306846425301
 30
0.0
 40
9.5
100
AcDbArc
 50
0.0000000000000114
 51
180.0
  0
ARC
  5
22A
330
1F
100
AcDbEntity
  8
0
 62
     3
100
AcDbCircle
 10
-370.1612211441444
 20
128.7306846425301
 30
0.0
 40
22.5
100
AcDbArc
 50
0.0000000000000114
 51
180.0
  0
LINE
  5
22B
330
1F
100
AcDbEntity
  8
0
 62
     3
100
AcDbLine
 10
-347.6612211441444
 20
128.7306846425301
 30
0.0
 11
-347.6612211441445
 21
108.7306846425301
 31
0.0
  0
LINE
  5
22C
330
1F
100
AcDbEntity
  8
0
 62
     3
100
AcDbLine
 10
-392.6612211441444
 20
128.7306846425301
 30
0.0
 11
-392.6612211441445
 21
110.3206155181212
 31
0.0
  0
LINE
  5
22D
330
1F
100
AcDbEntity
  8
0
 62
     3
100
AcDbLine
 10
-595.1612211441444
 20
144.23068464253
 30
0.0
 11
-474.0541949200452
 21
144.23068464253
 31
0.0
  0
ARC
  5
22E
330
1F
100
AcDbEntity
  8
0
 62
     3
100
AcDbCircle
 10
-474.0541949200452
 20
86.23068464253004
 30
0.0
 40
58.0
100
AcDbArc
 50
61.64472576843303
 51
90.00000000000001
  0
ARC
  5
22F
330
1F
100
AcDbEntity
  8
0
 62
     3
100
AcDbCircle
 10
-370.1612211441446
 20
268.73068464253
 30
0.0
 40
152.0
100
AcDbArc
 50
248.4875872268826
 51
250.8628864994544
  0
ARC
  5
230
330
1F
100
AcDbEntity
  8
0
 62
     3
100
AcDbCircle
 10
-420.8109443364587
 20
122.7688555893767
 30
0.0
 40
2.5
100
AcDbArc
 50
341.7900431357172
 51
70.86288649945442
  0
LINE
  5
231
330
1F
100
AcDbEntity
  8
0
 62
     3
100
AcDbLine
 10
-317.6612211441442
 20
116.7306846425301
 30
0.0
 11
-302.1612211441444
 21
116.7306846425301
 31
0.0
  0
ARC
  5
232
330
1F
100
AcDbEntity
  8
0
 62
     3
100
AcDbCircle
 10
-205.1612211441446
 20
268.7306846425303
 30
0.0
 40
152.0
100
AcDbArc
 50
289.1986751275745
 51
299.6518453912559
  0
ARC
  5
233
330
1F
100
AcDbEntity
  8
0
 62
     3
100
AcDbCircle
 10
-101.2682473682438
 20
86.23068464253029
 30
0.0
 40
58.0
100
AcDbArc
 50
90.00000000000003
 51
119.6518453912559
  0
LINE
  5
234
330
1F
100
AcDbEntity
  8
0
 62
     3
100
AcDbLine
 10
-101.2682473682438
 20
144.2306846425303
 30
0.0
 11
24.83877885585541
 21
144.2306846425304
 31
0.0
  0
ARC
  5
235
330
1F
100
AcDbEntity
  8
0
 62
     3
100
AcDbCircle
 10
24.83877885585538
 20
176.2306846425304
 30
0.0
 40
32.0
100
AcDbArc
 50
269.9999999999999
 51
360.0
  0
LINE
  5
236
330
1F
100
AcDbEntity
  8
0
 62
     3
100
AcDbLine
 10
56.83877885585538
 20
176.2306846425304
 30
0.0
 11
56.83877885585527
 21
202.7306846425303
 31
0.0
  0
LINE
  5
237
330
1F
100
AcDbEntity
  8
0
 62
     3
100
AcDbLine
 10
-320.1612211441442
 20
114.2306846425301
 30
0.0
 11
-320.1612211441444
 21
111.2306846425302
 31
0.0
  0
ARC
  5
238
330
1F
100
AcDbEntity
  8
0
 62
     3
100
AcDbCircle
 10
-317.6612211441444
 20
111.2306846425302
 30
0.0
 40
2.5
100
AcDbArc
 50
180.0
 51
269.9999999999999
  0
ARC
  5
239
330
1F
100
AcDbEntity
  8
0
 62
     3
100
AcDbCircle
 10
-317.6612211441442
 20
114.2306846425301
 30
0.0
 40
2.5
100
AcDbArc
 50
90.00000000000003
 51
180.0
  0
LINE
  5
23A
330
1F
100
AcDbEntity
  8
0
 62
     3
100
AcDbLine
 10
-419.3737703567181
 20
119.1374862677376
 30
0.0
 11
-418.4361499374631
 21
121.9876055893767
 31
0.0
  0
LINE
  5
23B
330
1F
100
AcDbEntity
  8
0
 62
     3
100
AcDbLine
 10
-520.1612211441445
 20
348.73068464253
 30
0.0
 11
-490.1612211441445
 21
348.7306846425302
 31
0.0
  0
LINE
  5
23C
330
1F
100
AcDbEntity
  8
0
 62
     3
100
AcDbLine
 10
-518.1612211441465
 20
345.73068464253
 30
0.0
 11
-600.1612211441446
 21
345.7306846425299
 31
0.0
  0
ARC
  5
23D
330
1F
100
AcDbEntity
  8
0
 62
     3
100
AcDbCircle
 10
-518.1612211441463
 20
348.73068464253
 30
0.0
 40
3.0
100
AcDbArc
 50
270.0000000000001
 51
360.0
  0
ARC
  5
23E
330
1F
100
AcDbEntity
  8
0
 62
     3
100
AcDbCircle
 10
-600.1612211441446
 20
335.7306846425299
 30
0.0
 40
10.0
100
AcDbArc
 50
90.0000000000001
 51
180.0000000000001
  0
LINE
  5
23F
330
1F
100
AcDbEntity
  8
0
 62
     3
100
AcDbLine
 10
39.83877885585555
 20
294.7306846425303
 30
0.0
 11
39.83877885585549
 21
328.7306846425304
 31
0.0
  0
LINE
  5
240
330
1F
100
AcDbEntity
  8
0
 62
     3
100
AcDbLine
 10
-445.1612211441445
 20
328.73068464253
 30
0.0
 11
-245.1612211441445
 21
328.7306846425303
 31
0.0
  0
LINE
  5
241
330
1F
100
AcDbEntity
  8
0
 62
     3
100
AcDbLine
 10
14.83877885585549
 20
328.7306846425304
 30
0.0
 11
39.83877885585549
 21
328.7306846425304
 31
0.0
  0
LINE
  5
242
330
1F
100
AcDbEntity
  8
0
 62
     3
100
AcDbLine
 10
-448.1612211441455
 20
325.7306846425302
 30
0.0
 11
-470.1612211441445
 21
325.7306846425302
 31
0.0
  0
LINE
  5
243
330
1F
100
AcDbEntity
  8
0
 62
     3
100
AcDbLine
 10
-245.1612211441445
 20
283.8806846425302
 30
0.0
 11
-445.1612211441445
 21
283.8806846425301
 31
0.0
  0
LINE
  5
244
330
1F
100
AcDbEntity
  8
0
 62
     3
100
AcDbLine
 10
-447.0112211441426
 20
285.7306846425303
 30
0.0
 11
-467.6612211441443
 21
285.73068464253
 31
0.0
  0
ARC
  5
245
330
1F
100
AcDbEntity
  8
0
 62
     3
100
AcDbCircle
 10
-448.1612211441455
 20
328.7306846425302
 30
0.0
 40
3.0
100
AcDbArc
 50
270.0000000000001
 51
360.0
  0
ARC
  5
246
330
1F
100
AcDbEntity
  8
0
 62
     3
100
AcDbCircle
 10
-447.0112211441426
 20
283.8806846425302
 30
0.0
 40
1.85
100
AcDbArc
 50
0.0000000000000114
 51
90.0000000000001
  0
ARC
  5
247
330
1F
100
AcDbEntity
  8
0
 62
     3
100
AcDbCircle
 10
-467.6612211441442
 20
265.73068464253
 30
0.0
 40
20.0
100
AcDbArc
 50
90.00000000000026
 51
97.180755781459
  0
LINE
  5
248
330
1F
100
AcDbEntity
  8
0
 62
     3
100
AcDbLine
 10
-470.1612211441445
 20
351.73068464253
 30
0.0
 11
-490.1612211441445
 21
351.73068464253
 31
0.0
  0
ARC
  5
249
330
1F
100
AcDbEntity
  8
0
 62
     3
100
AcDbCircle
 10
-523.1612211441463
 20
348.73068464253
 30
0.0
 40
3.0
100
AcDbArc
 50
270.0000000000001
 51
360.0
  0
LINE
  5
24A
330
1F
100
AcDbEntity
  8
0
 62
     3
100
AcDbLine
 10
-606.1612211441446
 20
285.5738194755144
 30
0.0
 11
-605.7313235557855
 21
285.5738194755159
 31
0.0
  0
ARC
  5
24B
330
1F
100
AcDbEntity
  8
0
 62
     3
100
AcDbCircle
 10
-605.7313235557855
 20
282.5738194755159
 30
0.0
 40
3.0
100
AcDbArc
 50
0.0000000000000114
 51
90.00000000000102
  0
LINE
  5
24C
330
1F
100
AcDbEntity
  8
0
 62
     3
100
AcDbLine
 10
-595.1612211441445
 20
361.23068464253
 30
0.0
 11
-474.0541949200454
 21
361.23068464253
 31
0.0
  0
ARC
  5
24D
330
1F
100
AcDbEntity
  8
0
 62
     3
100
AcDbCircle
 10
-595.1612211441444
 20
321.2306846425299
 30
0.0
 40
40.0
100
AcDbArc
 50
90.0000000000001
 51
180.0000000000001
  0
ARC
  5
24E
330
1F
100
AcDbEntity
  8
0
 62
     3
100
AcDbCircle
 10
-474.0541949200454
 20
411.23068464253
 30
0.0
 40
50.0
100
AcDbArc
 50
270.0000000000001
 51
299.6518453912559
  0
LINE
  5
24F
330
1F
100
AcDbEntity
  8
0
 62
     3
100
AcDbLine
 10
-101.2682473682439
 20
361.2306846425303
 30
0.0
 11
24.83877885585527
 21
361.2306846425304
 31
0.0
  0
ARC
  5
250
330
1F
100
AcDbEntity
  8
0
 62
     3
100
AcDbCircle
 10
-101.268247368244
 20
411.2306846425302
 30
0.0
 40
50.0
100
AcDbArc
 50
240.3481546087442
 51
270.0000000000001
  0
ARC
  5
251
330
1F
100
AcDbEntity
  8
0
 62
     3
100
AcDbCircle
 10
24.83877885585527
 20
321.2306846425304
 30
0.0
 40
40.0
100
AcDbArc
 50
0.0000000000000114
 51
90.0000000000001
  0
ARC
  5
252
330
1F
100
AcDbEntity
  8
0
 62
     3
100
AcDbCircle
 10
-205.1612211441447
 20
228.7306846425302
 30
0.0
 40
160.0
100
AcDbArc
 50
60.34815460874422
 51
90.0000000000001
  0
LINE
  5
253
330
1F
100
AcDbEntity
  8
0
 62
     3
100
AcDbLine
 10
-360.6612211441445
 20
388.7306846425302
 30
0.0
 11
-205.1612211441447
 21
388.7306846425303
 31
0.0
  0
ARC
  5
254
330
1F
100
AcDbEntity
  8
0
 62
     3
100
AcDbCircle
 10
-270.1612211441445
 20
368.7306846425302
 30
0.0
 40
20.0
100
AcDbArc
 50
90.0000000000001
 51
270.0000000000001
  0
ARC
  5
255
330
1F
100
AcDbEntity
  8
0
 62
     3
100
AcDbCircle
 10
-302.1612211441445
 20
368.7306846425302
 30
0.0
 40
12.0
100
AcDbArc
 50
0.0000000000000114
 51
90.0000000000001
  0
LINE
  5
256
330
1F
100
AcDbEntity
  8
0
 62
     3
100
AcDbLine
 10
-270.1612211441445
 20
348.7306846425302
 30
0.0
 11
-245.1612211441445
 21
348.7306846425303
 31
0.0
  0
ARC
  5
257
330
1F
100
AcDbEntity
  8
0
 62
     3
100
AcDbCircle
 10
-190.1612211441445
 20
368.7306846425303
 30
0.0
 40
20.0
100
AcDbArc
 50
270.0000000000001
 51
66.50729274621534
  0
ARC
  5
258
330
1F
100
AcDbEntity
  8
0
 62
     3
100
AcDbCircle
 10
-159.1229478181581
 20
360.9444410718888
 30
0.0
 40
12.0
100
AcDbArc
 50
70.80132487242551
 51
165.917420744021
  0
ARC
  5
259
330
1F
100
AcDbEntity
  8
0
 62
     3
100
AcDbCircle
 10
-430.1612211441445
 20
352.6537330966627
 30
0.0
 40
18.0
100
AcDbArc
 50
76.30625864436762
 51
155.2502086531073
  0
ARC
  5
25A
330
1F
100
AcDbEntity
  8
0
 62
     3
100
AcDbCircle
 10
-370.1612211441447
 20
228.7306846425301
 30
0.0
 40
160.0
100
AcDbArc
 50
93.40126804660446
 51
119.651845391256
  0
ARC
  5
25B
330
1F
100
AcDbEntity
  8
0
 62
     3
100
AcDbCircle
 10
-421.7485647557136
 20
377.5426330173225
 30
0.0
 40
2.5
100
AcDbArc
 50
18.20995686428325
 51
109.1194518762882
  0
ARC
  5
25C
330
1F
100
AcDbEntity
  8
0
 62
     3
100
AcDbCircle
 10
-610.1612211441444
 20
248.73068464253
 30
0.0
 40
9.5
100
AcDbArc
 50
38.54725366520407
 51
89.99999999999999
  0
LINE
  5
25D
330
1F
100
AcDbEntity
  8
0
 62
     3
100
AcDbLine
 10
-610.1612211441444
 20
258.23068464253
 30
0.0
 11
-635.1612211441444
 21
258.2306846425305
 31
0.0
  0
ARC
  5
25E
330
1F
100
AcDbEntity
  8
0
 62
     3
100
AcDbCircle
 10
-610.1612211441444
 20
248.73068464253
 30
0.0
 40
22.5
100
AcDbArc
 50
70.71801226159529
 51
89.99999999999999
  0
LINE
  5
25F
330
1F
100
AcDbEntity
  8
0
 62
     3
100
AcDbLine
 10
-610.1612211441446
 20
271.23068464253
 30
0.0
 11
-622.1612211441444
 21
271.2306846425294
 31
0.0
  0
ARC
  5
260
330
1F
100
AcDbEntity
  8
0
 62
     3
100
AcDbCircle
 10
-622.1612211441446
 20
276.2306846425294
 30
0.0
 40
5.0
100
AcDbArc
 50
180.0
 51
270.0000000000017
  0
ARC
  5
261
330
1F
100
AcDbEntity
  8
0
 62
     3
100
AcDbCircle
 10
-595.1612211441444
 20
321.2306846425299
 30
0.0
 40
32.0
100
AcDbArc
 50
90.0000000000001
 51
180.0000000000001
  0
LINE
  5
262
330
1F
100
AcDbEntity
  8
0
 62
     3
100
AcDbLine
 10
-595.1612211441445
 20
353.2306846425299
 30
0.0
 11
-474.0541949200454
 21
353.23068464253
 31
0.0
  0
ARC
  5
263
330
1F
100
AcDbEntity
  8
0
 62
     3
100
AcDbCircle
 10
-474.0541949200454
 20
411.23068464253
 30
0.0
 40
58.0
100
AcDbArc
 50
270.0000000000001
 51
298.355274231567
  0
ARC
  5
264
330
1F
100
AcDbEntity
  8
0
 62
     3
100
AcDbCircle
 10
-370.1612211441447
 20
228.7306846425301
 30
0.0
 40
152.0
100
AcDbArc
 50
109.1371135005457
 51
111.5124127731174
  0
ARC
  5
265
330
1F
100
AcDbEntity
  8
0
 62
     3
100
AcDbCircle
 10
-420.8109443364587
 20
374.6925136956834
 30
0.0
 40
2.5
100
AcDbArc
 50
289.1371135005456
 51
18.2099568642829
  0
LINE
  5
266
330
1F
100
AcDbEntity
  8
0
 62
     3
100
AcDbLine
 10
-317.6612211441444
 20
380.7306846425302
 30
0.0
 11
-302.1612211441445
 21
380.7306846425302
 31
0.0
  0
ARC
  5
267
330
1F
100
AcDbEntity
  8
0
 62
     3
100
AcDbCircle
 10
-205.1612211441447
 20
228.7306846425302
 30
0.0
 40
152.0
100
AcDbArc
 50
60.34815460874422
 51
70.80132487242551
  0
ARC
  5
268
330
1F
100
AcDbEntity
  8
0
 62
     3
100
AcDbCircle
 10
-101.268247368244
 20
411.2306846425302
 30
0.0
 40
58.0
100
AcDbArc
 50
240.3481546087442
 51
270.0000000000001
  0
LINE
  5
269
330
1F
100
AcDbEntity
  8
0
 62
     3
100
AcDbLine
 10
-101.2682473682439
 20
353.2306846425303
 30
0.0
 11
24.83877885585527
 21
353.2306846425304
 31
0.0
  0
ARC
  5
26A
330
1F
100
AcDbEntity
  8
0
 62
     3
100
AcDbCircle
 10
24.83877885585527
 20
321.2306846425304
 30
0.0
 40
32.0
100
AcDbArc
 50
0.0000000000000114
 51
90.0000000000001
  0
LINE
  5
26B
330
1F
100
AcDbEntity
  8
0
 62
     3
100
AcDbLine
 10
56.83877885585527
 20
321.2306846425304
 30
0.0
 11
56.83877885585532
 21
294.7306846425303
 31
0.0
  0
LINE
  5
26C
330
1F
100
AcDbEntity
  8
0
 62
     3
100
AcDbLine
 10
-320.1612211441444
 20
383.2306846425302
 30
0.0
 11
-320.1612211441446
 21
386.23068464253
 31
0.0
  0
ARC
  5
26D
330
1F
100
AcDbEntity
  8
0
 62
     3
100
AcDbCircle
 10
-317.6612211441446
 20
386.23068464253
 30
0.0
 40
2.5
100
AcDbArc
 50
90.0000000000001
 51
180.0000000000001
  0
ARC
  5
26E
330
1F
100
AcDbEntity
  8
0
 62
     3
100
AcDbCircle
 10
-317.6612211441444
 20
383.2306846425302
 30
0.0
 40
2.5
100
AcDbArc
 50
180.0000000000001
 51
270.0000000000001
  0
LINE
  5
26F
330
1F
100
AcDbEntity
  8
0
 62
     3
100
AcDbLine
 10
-419.3737703567182
 20
378.3238830173226
 30
0.0
 11
-418.4361499374633
 21
375.4737636956834
 31
0.0
  0
LINE
  5
270
330
1F
100
AcDbEntity
  8
0
 62
     3
100
AcDbLine
 10
-626.4913481630671
 20
273.7306846425299
 30
0.0
 11
-635.1612211441446
 21
273.7306846425299
 31
0.0
  0
LINE
  5
271
330
1F
100
AcDbEntity
  8
0
 62
     3
100
AcDbLine
 10
-489.1612211441444
 20
-103.2522761823966
 30
0.0
 11
-470.1612211441444
 21
-103.2522761823966
 31
0.0
  0
LINE
  5
272
330
1F
100
AcDbEntity
  8
0
 62
     3
100
AcDbLine
 10
-470.1612211441444
 20
-103.2522761823966
 30
0.0
 11
-470.1612211441441
 21
-165.2522761823966
 31
0.0
  0
LINE
  5
273
330
1F
100
AcDbEntity
  8
0
 62
     3
100
AcDbLine
 10
-245.1612211441443
 20
-103.2522761823965
 30
0.0
 11
-245.1612211441444
 21
-165.2522761823965
 31
0.0
  0
LINE
  5
274
330
1F
100
AcDbEntity
  8
0
 62
     3
100
AcDbLine
 10
-245.1612211441443
 20
-103.2522761823965
 30
0.0
 11
-226.1612211441443
 21
-103.2522761823965
 31
0.0
  0
LINE
  5
275
330
1F
100
AcDbEntity
  8
0
 62
     3
100
AcDbLine
 10
-225.1612211441443
 20
-104.2522761823965
 30
0.0
 11
-225.1612211441444
 21
-165.2522761823965
 31
0.0
  0
LINE
  5
276
330
1F
100
AcDbEntity
  8
0
 62
     3
100
AcDbLine
 10
-230.1612211441444
 20
-165.2522761823965
 30
0.0
 11
-230.1612211441442
 21
-201.2522761823965
 31
0.0
  0
LINE
  5
277
330
1F
100
AcDbEntity
  8
0
 62
     3
100
AcDbLine
 10
-225.1612211441443
 20
-105.2522761823965
 30
0.0
 11
-5.161221144144321
 21
-105.2522761823963
 31
0.0
  0
LINE
  5
278
330
1F
100
AcDbEntity
  8
0
 62
     3
100
AcDbLine
 10
-3.161221144145927
 20
-107.2522761823964
 30
0.0
 11
14.83877885585567
 21
-107.2522761823963
 31
0.0
  0
LINE
  5
279
330
1F
100
AcDbEntity
  8
0
 62
     3
100
AcDbLine
 10
14.83877885585567
 20
-107.2522761823963
 30
0.0
 11
14.83877885585572
 21
-185.2522761823963
 31
0.0
  0
ARC
  5
27A
330
1F
100
AcDbEntity
  8
0
 62
     3
100
AcDbCircle
 10
-3.161221144145927
 20
-105.2522761823964
 30
0.0
 40
2.0
100
AcDbArc
 50
180.0
 51
269.9999999999999
  0
LINE
  5
27B
330
1F
100
AcDbEntity
  8
0
 62
     3
100
AcDbLine
 10
10.83877885585578
 20
-201.2522761823963
 30
0.0
 11
10.83877885585572
 21
-185.2522761823963
 31
0.0
  0
LINE
  5
27C
330
1F
100
AcDbEntity
  8
0
 62
     3
100
AcDbLine
 10
-230.1612211441442
 20
-201.2522761823965
 30
0.0
 11
10.83877885585579
 21
-201.2522761823963
 31
0.0
  0
LINE
  5
27D
330
1F
100
AcDbEntity
  8
0
 62
     3
100
AcDbLine
 10
-175.1612211441444
 20
-124.1762993059628
 30
0.0
 11
-175.1612211441444
 21
-105.2522761823964
 31
0.0
  0
LINE
  5
27E
330
1F
100
AcDbEntity
  8
0
 62
     3
100
AcDbLine
 10
11.83877885585572
 20
-185.2522761823963
 30
0.0
 11
11.83877885585569
 21
-161.32825305883
 31
0.0
  0
LINE
  5
27F
330
1F
100
AcDbEntity
  8
0
 62
     3
100
AcDbLine
 10
-164.1207061455195
 20
-136.1378789897728
 30
0.0
 11
0.798263857230836
 21
-149.36667337502
 31
0.0
  0
ARC
  5
280
330
1F
100
AcDbEntity
  8
0
 62
     3
100
AcDbCircle
 10
-0.1612211441443066
 20
-161.32825305883
 30
0.0
 40
12.0
100
AcDbArc
 50
0.0000000000000114
 51
85.4139011038292
  0
ARC
  5
281
330
1F
100
AcDbEntity
  8
0
 62
     3
100
AcDbCircle
 10
-163.1612211441444
 20
-124.1762993059628
 30
0.0
 40
12.0
100
AcDbArc
 50
180.0
 51
265.4139011038291
  0
LINE
  5
282
330
1F
100
AcDbEntity
  8
0
 62
     3
100
AcDbLine
 10
-320.1612211441441
 20
-241.2522761823965
 30
0.0
 11
-320.1612211441441
 21
-238.7522761823965
 31
0.0
  0
ARC
  5
283
330
1F
100
AcDbEntity
  8
0
 62
     3
100
AcDbCircle
 10
-317.6612211441441
 20
-238.7522761823965
 30
0.0
 40
2.5
100
AcDbArc
 50
90.00000000000003
 51
180.0
  0
ARC
  5
284
330
1F
100
AcDbEntity
  8
0
 62
     3
100
AcDbCircle
 10
-323.1612211441441
 20
-241.2522761823965
 30
0.0
 40
3.0
100
AcDbArc
 50
269.9999999999999
 51
360.0
  0
LINE
  5
285
330
1F
100
AcDbEntity
  8
0
 62
     3
100
AcDbLine
 10
-420.161221144144
 20
-241.2522761823966
 30
0.0
 11
-420.1612211441441
 21
-238.7522761823966
 31
0.0
  0
ARC
  5
286
330
1F
100
AcDbEntity
  8
0
 62
     3
100
AcDbCircle
 10
-422.6612211441441
 20
-238.7522761823966
 30
0.0
 40
2.5
100
AcDbArc
 50
0.0000000000000114
 51
90.00000000000003
  0
ARC
  5
287
330
1F
100
AcDbEntity
  8
0
 62
     3
100
AcDbCircle
 10
-417.161221144144
 20
-241.2522761823966
 30
0.0
 40
3.0
100
AcDbArc
 50
180.0
 51
270.0
  0
LINE
  5
288
330
1F
100
AcDbEntity
  8
0
 62
     3
100
AcDbLine
 10
-417.6612211441442
 20
-238.7522761823966
 30
0.0
 11
-417.6612211441443
 21
-241.2522761823966
 31
0.0
  0
ARC
  5
289
330
1F
100
AcDbEntity
  8
0
 62
     3
100
AcDbCircle
 10
-420.1612211441442
 20
-238.7522761823966
 30
0.0
 40
2.5
100
AcDbArc
 50
0.0000000000000114
 51
90.00000000000003
  0
ARC
  5
28A
330
1F
100
AcDbEntity
  8
0
 62
     3
100
AcDbCircle
 10
-414.6612211441443
 20
-241.2522761823966
 30
0.0
 40
3.0
100
AcDbArc
 50
180.0
 51
270.0
  0
LINE
  5
28B
330
1F
100
AcDbEntity
  8
0
 62
     3
100
AcDbLine
 10
-360.6612211441442
 20
-265.2522761823965
 30
0.0
 11
-360.6612211441442
 21
-235.2522761823965
 31
0.0
  0
LINE
  5
28C
330
1F
100
AcDbEntity
  8
0
 62
     3
100
AcDbLine
 10
-379.6612211441442
 20
-265.2522761823965
 30
0.0
 11
-379.6612211441442
 21
-235.2522761823965
 31
0.0
  0
LINE
  5
28D
330
1F
100
AcDbEntity
  8
0
 62
     3
100
AcDbLine
 10
-290.1612211441442
 20
-235.2522761823965
 30
0.0
 11
-170.1612211441442
 21
-235.2522761823964
 31
0.0
  0
LINE
  5
28E
330
1F
100
AcDbEntity
  8
0
 62
     3
100
AcDbLine
 10
-270.1612211441442
 20
-236.2522761823965
 30
0.0
 11
-269.1612211441442
 21
-235.2522761823965
 31
0.0
  0
LINE
  5
28F
330
1F
100
AcDbEntity
  8
0
 62
     3
100
AcDbLine
 10
-290.1612211441442
 20
-235.2522761823965
 30
0.0
 11
-291.1612211441442
 21
-236.2522761823965
 31
0.0
  0
LINE
  5
290
330
1F
100
AcDbEntity
  8
0
 62
     3
100
AcDbLine
 10
-169.1612211441442
 20
-236.2522761823964
 30
0.0
 11
-170.1612211441442
 21
-235.2522761823964
 31
0.0
  0
LINE
  5
291
330
1F
100
AcDbEntity
  8
0
 62
     3
100
AcDbLine
 10
-182.1885743429825
 20
-236.2522761823964
 30
0.0
 11
-183.1885743429825
 21
-235.2522761823964
 31
0.0
  0
LINE
  5
292
330
1F
100
AcDbEntity
  8
0
 62
     3
100
AcDbLine
 10
76.83877885585567
 20
-113.2522761823962
 30
0.0
 11
76.83877885585561
 21
-178.7522761823963
 31
0.0
  0
LINE
  5
293
330
1F
100
AcDbEntity
  8
0
 62
     3
100
AcDbLine
 10
14.83877885585575
 20
-164.7522761823963
 30
0.0
 11
54.83877885585567
 21
-164.7522761823963
 31
0.0
  0
LINE
  5
294
330
1F
100
AcDbEntity
  8
0
 62
     3
100
AcDbLine
 10
74.33877885585567
 20
-161.7522761823964
 30
0.0
 11
57.8387788558551
 21
-161.7522761823964
 31
0.0
  0
ARC
  5
295
330
1F
100
AcDbEntity
  8
0
 62
     3
100
AcDbCircle
 10
74.33877885585567
 20
-159.2522761823964
 30
0.0
 40
2.5
100
AcDbArc
 50
269.9999999999998
 51
360.0
  0
ARC
  5
296
330
1F
100
AcDbEntity
  8
0
 62
     3
100
AcDbCircle
 10
57.8387788558551
 20
-164.7522761823964
 30
0.0
 40
3.0
100
AcDbArc
 50
90.00000000000003
 51
180.0
  0
LINE
  5
297
330
1F
100
AcDbEntity
  8
0
 62
     3
100
AcDbLine
 10
74.33877885585561
 20
-181.2522761823963
 30
0.0
 11
62.33877885585584
 21
-181.2522761823963
 31
0.0
  0
ARC
  5
298
330
1F
100
AcDbEntity
  8
0
 62
     3
100
AcDbCircle
 10
74.33877885585561
 20
-178.7522761823963
 30
0.0
 40
2.5
100
AcDbArc
 50
269.9999999999999
 51
360.0
  0
LINE
  5
299
330
1F
100
AcDbEntity
  8
0
 62
     3
100
AcDbLine
 10
59.83877885585584
 20
-178.7522761823963
 30
0.0
 11
59.83877885585567
 21
-161.7522761823963
 31
0.0
  0
ARC
  5
29A
330
1F
100
AcDbEntity
  8
0
 62
     3
100
AcDbCircle
 10
62.33877885585584
 20
-178.7522761823963
 30
0.0
 40
2.5
100
AcDbArc
 50
180.0
 51
270.0000000000001
  0
LINE
  5
29B
330
1F
100
AcDbEntity
  8
0
 62
     3
100
AcDbLine
 10
71.83877885585567
 20
-108.2522761823963
 30
0.0
 11
14.83877885585572
 21
-108.2522761823963
 31
0.0
  0
ARC
  5
29C
330
1F
100
AcDbEntity
  8
0
 62
     3
100
AcDbCircle
 10
71.83877885585567
 20
-113.2522761823963
 30
0.0
 40
5.0
100
AcDbArc
 50
0.0000000000000114
 51
90.00000000000003
  0
LINE
  5
29D
330
1F
100
AcDbEntity
  8
0
 62
     3
100
AcDbLine
 10
79.83877885585567
 20
-121.7522761823963
 30
0.0
 11
79.83877885585561
 21
-168.7522761823963
 31
0.0
  0
ARC
  5
29E
330
1F
100
AcDbEntity
  8
0
 62
     3
100
AcDbCircle
 10
79.83877885585572
 20
-171.7522761823953
 30
0.0
 40
3.0
100
AcDbArc
 50
89.99999999998643
 51
180.0
  0
ARC
  5
29F
330
1F
100
AcDbEntity
  8
0
 62
     3
100
AcDbCircle
 10
79.83877885585555
 20
-118.7522761823952
 30
0.0
 40
3.0
100
AcDbArc
 50
180.0
 51
270.0000000000092
  0
LINE
  5
2A0
330
1F
100
AcDbEntity
  8
0
 62
     3
100
AcDbLine
 10
-245.1612211441445
 20
145.7306846425302
 30
0.0
 11
-245.1612211441445
 21
351.7306846425303
 31
0.0
  0
LINE
  5
2A1
330
1F
100
AcDbEntity
  8
0
 62
     3
100
AcDbLine
 10
-225.1612211441445
 20
145.7306846425302
 30
0.0
 11
-225.1612211441445
 21
351.7306846425303
 31
0.0
  0
LINE
  5
2A2
330
1F
100
AcDbEntity
  8
0
 62
     3
100
AcDbLine
 10
-245.1612211441445
 20
351.7306846425303
 30
0.0
 11
-225.1612211441445
 21
351.7306846425303
 31
0.0
  0
LINE
  5
2A3
330
1F
100
AcDbEntity
  8
0
 62
     3
100
AcDbLine
 10
-245.1612211441445
 20
145.7306846425302
 30
0.0
 11
-225.1612211441445
 21
145.7306846425302
 31
0.0
  0
LINE
  5
2A4
330
1F
100
AcDbEntity
  8
0
 62
     3
100
AcDbLine
 10
32.83877885585527
 20
325.7306846425299
 30
0.0
 11
32.83877885585552
 21
257.7306846425303
 31
0.0
  0
ARC
  5
2A5
330
1F
100
AcDbEntity
  8
0
 62
     3
100
AcDbCircle
 10
29.83877885585527
 20
325.7306846425299
 30
0.0
 40
3.0
100
AcDbArc
 50
0.0000000000000114
 51
89.99999999999945
  0
LINE
  5
2A6
330
1F
100
AcDbEntity
  8
0
 62
     3
100
AcDbLine
 10
32.83877885585555
 20
239.7306846425303
 30
0.0
 11
32.83877885585549
 21
171.73068464253
 31
0.0
  0
ARC
  5
2A7
330
1F
100
AcDbEntity
  8
0
 62
     3
100
AcDbCircle
 10
29.83877885585549
 20
171.73068464253
 30
0.0
 40
3.0
100
AcDbArc
 50
269.9999999999994
 51
360.0
  0
LINE
  5
2A8
330
1F
100
AcDbEntity
  8
0
 62
     3
100
AcDbLine
 10
76.83877885585555
 20
289.7306846425303
 30
0.0
 11
76.83877885585561
 21
207.7306846425303
 31
0.0
  0
LINE
  5
2A9
330
1F
100
AcDbEntity
  8
0
 62
     3
100
AcDbLine
 10
79.83877885585555
 20
272.2306846425304
 30
0.0
 11
79.83877885585561
 21
225.2306846425303
 31
0.0
  0
LINE
  5
2AA
330
1F
100
AcDbEntity
  8
0
 62
     3
100
AcDbLine
 10
71.83877885585555
 20
294.7306846425303
 30
0.0
 11
38.83877885585544
 21
294.7306846425302
 31
0.0
  0
ARC
  5
2AB
330
1F
100
AcDbEntity
  8
0
 62
     3
100
AcDbCircle
 10
71.83877885585555
 20
289.7306846425303
 30
0.0
 40
5.0
100
AcDbArc
 50
0.0000000000000114
 51
90.00000000000046
  0
ARC
  5
2AC
330
1F
100
AcDbEntity
  8
0
 62
     3
100
AcDbCircle
 10
38.83877885585544
 20
300.7306846425302
 30
0.0
 40
6.0
100
AcDbArc
 50
180.0
 51
270.0000000000001
  0
LINE
  5
2AD
330
1F
100
AcDbEntity
  8
0
 62
     3
100
AcDbLine
 10
71.83877885585561
 20
202.7306846425303
 30
0.0
 11
38.83877885585538
 21
202.7306846425304
 31
0.0
  0
ARC
  5
2AE
330
1F
100
AcDbEntity
  8
0
 62
     3
100
AcDbCircle
 10
71.83877885585561
 20
207.7306846425303
 30
0.0
 40
5.0
100
AcDbArc
 50
269.9999999999999
 51
360.0
  0
ARC
  5
2AF
330
1F
100
AcDbEntity
  8
0
 62
     3
100
AcDbCircle
 10
38.83877885585549
 20
196.7306846425304
 30
0.0
 40
6.0
100
AcDbArc
 50
90.0000000000001
 51
180.0
  0
LINE
  5
2B0
330
1F
100
AcDbEntity
  8
0
 62
     3
100
AcDbLine
 10
14.83877885585549
 20
331.2306846425304
 30
0.0
 11
14.83877885585561
 21
166.2306846425304
 31
0.0
  0
LINE
  5
2B1
330
1F
100
AcDbEntity
  8
0
 62
     3
100
AcDbLine
 10
11.83877885585558
 20
148.7306846425303
 30
0.0
 11
-225.1612211441445
 21
148.7306846425301
 31
0.0
  0
ARC
  5
2B2
330
1F
100
AcDbEntity
  8
0
 62
     3
100
AcDbCircle
 10
79.83877885585555
 20
275.2306846425287
 30
0.0
 40
3.0
100
AcDbArc
 50
180.0
 51
269.9999999999587
  0
ARC
  5
2B3
330
1F
100
AcDbEntity
  8
0
 62
     3
100
AcDbCircle
 10
79.83877885585549
 20
222.2306846425299
 30
0.0
 40
3.0
100
AcDbArc
 50
90.00000000002608
 51
180.0
  0
LINE
  5
2B4
330
1F
100
AcDbEntity
  8
0
 62
     3
100
AcDbLine
 10
11.83877885585549
 20
348.7306846425304
 30
0.0
 11
11.83877885585558
 21
148.7306846425303
 31
0.0
  0
LINE
  5
2B5
330
1F
100
AcDbEntity
  8
0
 62
     3
100
AcDbLine
 10
-5.16122114414452
 20
300.3919410231566
 30
0.0
 11
-5.161221144144392
 21
197.0694282619041
 31
0.0
  0
LINE
  5
2B6
330
1F
100
AcDbEntity
  8
0
 62
     3
100
AcDbLine
 10
-157.7648175232113
 20
165.77732036264
 30
0.0
 11
-18.40860243063349
 21
182.1721691970609
 31
0.0
  0
ARC
  5
2B7
330
1F
100
AcDbEntity
  8
0
 62
     3
100
AcDbCircle
 10
-20.16122114414445
 20
197.0694282619041
 30
0.0
 40
15.0
100
AcDbArc
 50
276.7098368077569
 51
360.0
  0
LINE
  5
2B8
330
1F
100
AcDbEntity
  8
0
 62
     3
100
AcDbLine
 10
-170.1612211441444
 20
153.7306846425301
 30
0.0
 11
1.838778855855594
 21
153.7306846425304
 31
0.0
  0
ARC
  5
2B9
330
1F
100
AcDbEntity
  8
0
 62
     3
100
AcDbCircle
 10
-170.1612211441444
 20
148.7306846425301
 30
0.0
 40
5.0
100
AcDbArc
 50
90.00000000000006
 51
180.0
  0
ARC
  5
2BA
330
1F
100
AcDbEntity
  8
0
 62
     3
100
AcDbCircle
 10
1.83877885585558
 20
163.7306846425304
 30
0.0
 40
10.0
100
AcDbArc
 50
270.0
 51
360.0
  0
ARC
  5
2BB
330
1F
100
AcDbEntity
  8
0
 62
     3
100
AcDbCircle
 10
-155.4279925718634
 20
145.9143082761824
 30
0.0
 40
20.0
100
AcDbArc
 50
96.70983680775694
 51
169.1780027747932
  0
ARC
  5
2BC
330
1F
100
AcDbEntity
  8
0
 62
     3
100
AcDbCircle
 10
14.83877885585592
 20
163.2306846425304
 30
0.0
 40
3.0
100
AcDbArc
 50
89.99999999999243
 51
180.0
  0
LINE
  5
2BD
330
1F
100
AcDbEntity
  8
0
 62
     3
100
AcDbLine
 10
11.83877885585549
 20
348.7306846425305
 30
0.0
 11
-225.1612211441445
 21
348.7306846425303
 31
0.0
  0
LINE
  5
2BE
330
1F
100
AcDbEntity
  8
0
 62
     3
100
AcDbLine
 10
-157.7648175232115
 20
331.6840489224205
 30
0.0
 11
-18.40860243063355
 21
315.2892000879997
 31
0.0
  0
ARC
  5
2BF
330
1F
100
AcDbEntity
  8
0
 62
     3
100
AcDbCircle
 10
-20.16122114414452
 20
300.3919410231565
 30
0.0
 40
15.0
100
AcDbArc
 50
0.0000000000000114
 51
83.29016319224319
  0
LINE
  5
2C0
330
1F
100
AcDbEntity
  8
0
 62
     3
100
AcDbLine
 10
-170.1612211441445
 20
343.7306846425304
 30
0.0
 11
1.838778855855509
 21
343.7306846425304
 31
0.0
  0
ARC
  5
2C1
330
1F
100
AcDbEntity
  8
0
 62
     3
100
AcDbCircle
 10
-170.1612211441445
 20
348.7306846425304
 30
0.0
 40
5.0
100
AcDbArc
 50
180.0000000000001
 51
270.0
  0
ARC
  5
2C2
330
1F
100
AcDbEntity
  8
0
 62
     3
100
AcDbCircle
 10
1.838778855855495
 20
333.7306846425304
 30
0.0
 40
10.0
100
AcDbArc
 50
0.0000000000000114
 51
90.00000000000006
  0
ARC
  5
2C3
330
1F
100
AcDbEntity
  8
0
 62
     3
100
AcDbCircle
 10
-155.4279925718635
 20
351.5470610088781
 30
0.0
 40
20.0
100
AcDbArc
 50
190.8219972252069
 51
263.2901631922431
  0
ARC
  5
2C4
330
1F
100
AcDbEntity
  8
0
 62
     3
100
AcDbCircle
 10
14.83877885585584
 20
334.2306846425304
 30
0.0
 40
3.0
100
AcDbArc
 50
180.0000000000001
 51
270.0000000000076
  0
LINE
  5
2C5
330
1F
100
AcDbEntity
  8
0
 62
     3
100
AcDbLine
 10
165.8387788558558
 20
-135.7522761823962
 30
0.0
 11
165.8387788558557
 21
-154.7522761823963
 31
0.0
  0
LINE
  5
2C6
330
1F
100
AcDbEntity
  8
0
 62
     3
100
AcDbLine
 10
140.8387788558556
 20
-134.2522761823962
 30
0.0
 11
79.83877885585561
 21
-134.2522761823963
 31
0.0
  0
LINE
  5
2C7
330
1F
100
AcDbEntity
  8
0
 62
     3
100
AcDbLine
 10
140.8387788558557
 20
-156.2522761823962
 30
0.0
 11
79.83877885585567
 21
-156.2522761823963
 31
0.0
  0
LINE
  5
2C8
330
1F
100
AcDbEntity
  8
0
 62
     3
100
AcDbLine
 10
107.3387788558556
 20
-134.2522761823962
 30
0.0
 11
107.3387788558557
 21
-156.2522761823962
 31
0.0
  0
LINE
  5
2C9
330
1F
100
AcDbEntity
  8
0
 62
     3
100
AcDbLine
 10
99.03877885585565
 20
-134.2522761823962
 30
0.0
 11
99.03877885585571
 21
-156.2522761823962
 31
0.0
  0
LINE
  5
2CA
330
1F
100
AcDbEntity
  8
0
 62
     3
100
AcDbLine
 10
90.73877885585559
 20
-134.2522761823963
 30
0.0
 11
90.73877885585564
 21
-156.2522761823962
 31
0.0
  0
LINE
  5
2CB
330
1F
100
AcDbEntity
  8
0
 62
     3
100
AcDbLine
 10
140.8387788558556
 20
-134.2522761823962
 30
0.0
 11
140.8387788558557
 21
-156.2522761823962
 31
0.0
  0
LINE
  5
2CC
330
1F
100
AcDbEntity
  8
0
 62
     3
100
AcDbLine
 10
170.8387788558559
 20
-136.2522761823962
 30
0.0
 11
170.8387788558559
 21
-154.2522761823962
 31
0.0
  0
LINE
  5
2CD
330
1F
100
AcDbEntity
  8
0
 62
     3
100
AcDbLine
 10
170.8387788558559
 20
-136.2522761823962
 30
0.0
 11
165.8387788558558
 21
-136.2522761823962
 31
0.0
  0
LINE
  5
2CE
330
1F
100
AcDbEntity
  8
0
 62
     3
100
AcDbLine
 10
170.8387788558559
 20
-154.2522761823962
 30
0.0
 11
165.8387788558559
 21
-154.2522761823962
 31
0.0
  0
LINE
  5
2CF
330
1F
100
AcDbEntity
  8
0
 62
     3
100
AcDbLine
 10
189.8387788558559
 20
-136.2522761823962
 30
0.0
 11
189.8387788558559
 21
-154.2522761823962
 31
0.0
  0
LINE
  5
2D0
330
1F
100
AcDbEntity
  8
0
 62
     3
100
AcDbLine
 10
176.3387788558559
 20
-136.2522761823962
 30
0.0
 11
176.3387788558559
 21
-154.2522761823962
 31
0.0
  0
LINE
  5
2D1
330
1F
100
AcDbEntity
  8
0
 62
     3
100
AcDbLine
 10
176.3387788558559
 20
-136.2522761823962
 30
0.0
 11
189.8387788558559
 21
-136.2522761823962
 31
0.0
  0
LINE
  5
2D2
330
1F
100
AcDbEntity
  8
0
 62
     3
100
AcDbLine
 10
176.3387788558559
 20
-154.2522761823962
 30
0.0
 11
189.8387788558559
 21
-154.2522761823962
 31
0.0
  0
LINE
  5
2D3
330
1F
100
AcDbEntity
  8
0
 62
     3
100
AcDbLine
 10
170.8387788558558
 20
-138.0022761823962
 30
0.0
 11
176.3387788558558
 21
-138.0022761823962
 31
0.0
  0
LINE
  5
2D4
330
1F
100
AcDbEntity
  8
0
 62
     3
100
AcDbLine
 10
170.8387788558558
 20
-152.5022761823962
 30
0.0
 11
176.3387788558558
 21
-152.5022761823962
 31
0.0
  0
LINE
  5
2D5
330
1F
100
AcDbEntity
  8
0
 62
     3
100
AcDbLine
 10
165.8387788558557
 20
259.7003397571332
 30
0.0
 11
165.8387788558557
 21
237.7306846425305
 31
0.0
  0
LINE
  5
2D6
330
1F
100
AcDbEntity
  8
0
 62
     3
100
AcDbLine
 10
140.8387788558556
 20
259.7306846425304
 30
0.0
 11
79.83877885585561
 21
259.7306846425303
 31
0.0
  0
LINE
  5
2D7
330
1F
100
AcDbEntity
  8
0
 62
     3
100
AcDbLine
 10
140.8387788558556
 20
237.7306846425305
 30
0.0
 11
79.83877885585561
 21
237.7306846425304
 31
0.0
  0
LINE
  5
2D8
330
1F
100
AcDbEntity
  8
0
 62
     3
100
AcDbLine
 10
107.3387788558556
 20
259.7306846425303
 30
0.0
 11
107.3387788558556
 21
237.7306846425304
 31
0.0
  0
LINE
  5
2D9
330
1F
100
AcDbEntity
  8
0
 62
     3
100
AcDbLine
 10
99.03877885585554
 20
259.7306846425303
 30
0.0
 11
99.03877885585554
 21
237.7306846425304
 31
0.0
  0
LINE
  5
2DA
330
1F
100
AcDbEntity
  8
0
 62
     3
100
AcDbLine
 10
90.73877885585559
 20
259.7306846425303
 30
0.0
 11
90.73877885585559
 21
237.7306846425304
 31
0.0
  0
LINE
  5
2DB
330
1F
100
AcDbEntity
  8
0
 62
     3
100
AcDbLine
 10
140.8387788558556
 20
259.7306846425304
 30
0.0
 11
140.8387788558556
 21
237.7306846425305
 31
0.0
  0
LINE
  5
2DC
330
1F
100
AcDbEntity
  8
0
 62
     3
100
AcDbLine
 10
165.8387788558557
 20
259.7003397571332
 30
0.0
 11
140.8387788558556
 21
259.7003397571332
 31
0.0
  0
LINE
  5
2DD
330
1F
100
AcDbEntity
  8
0
 62
     3
100
AcDbLine
 10
165.8387788558557
 20
237.7306846425305
 30
0.0
 11
140.8387788558556
 21
237.7306846425305
 31
0.0
  0
LINE
  5
2DE
330
1F
100
AcDbEntity
  8
0
 62
     3
100
AcDbLine
 10
170.8387788558558
 20
257.7306846425304
 30
0.0
 11
170.8387788558558
 21
239.7306846425305
 31
0.0
  0
LINE
  5
2DF
330
1F
100
AcDbEntity
  8
0
 62
     3
100
AcDbLine
 10
170.8387788558558
 20
257.7306846425304
 30
0.0
 11
165.8387788558557
 21
257.7306846425304
 31
0.0
  0
LINE
  5
2E0
330
1F
100
AcDbEntity
  8
0
 62
     3
100
AcDbLine
 10
170.8387788558558
 20
239.7306846425305
 30
0.0
 11
165.8387788558557
 21
239.7306846425305
 31
0.0
  0
LINE
  5
2E1
330
1F
100
AcDbEntity
  8
0
 62
     3
100
AcDbLine
 10
189.8387788558559
 20
257.7306846425304
 30
0.0
 11
189.8387788558559
 21
239.7306846425304
 31
0.0
  0
LINE
  5
2E2
330
1F
100
AcDbEntity
  8
0
 62
     3
100
AcDbLine
 10
176.3387788558559
 20
257.7306846425304
 30
0.0
 11
176.3387788558559
 21
239.7306846425305
 31
0.0
  0
LINE
  5
2E3
330
1F
100
AcDbEntity
  8
0
 62
     3
100
AcDbLine
 10
176.3387788558559
 20
257.7306846425304
 30
0.0
 11
189.8387788558559
 21
257.7306846425304
 31
0.0
  0
LINE
  5
2E4
330
1F
100
AcDbEntity
  8
0
 62
     3
100
AcDbLine
 10
176.3387788558559
 20
239.7306846425305
 30
0.0
 11
189.8387788558559
 21
239.7306846425304
 31
0.0
  0
LINE
  5
2E5
330
1F
100
AcDbEntity
  8
0
 62
     3
100
AcDbLine
 10
170.8387788558558
 20
255.9806846425305
 30
0.0
 11
176.3387788558557
 21
255.9806846425305
 31
0.0
  0
LINE
  5
2E6
330
1F
100
AcDbEntity
  8
0
 62
     3
100
AcDbLine
 10
170.8387788558558
 20
241.4806846425305
 30
0.0
 11
176.3387788558557
 21
241.4806846425305
 31
0.0
  0
LINE
  5
2E7
330
1F
100
AcDbEntity
  8
0
 62
     3
100
AcDbLine
 10
165.8387788558557
 20
254.2155121998321
 30
0.0
 11
140.8387788558556
 21
254.2155121998321
 31
0.0
  0
LINE
  5
2E8
330
1F
100
AcDbEntity
  8
0
 62
     3
100
AcDbLine
 10
165.8387788558557
 20
243.2458570852288
 30
0.0
 11
140.8387788558556
 21
243.2458570852288
 31
0.0
  0
LINE
  5
2E9
330
1F
100
AcDbEntity
  8
0
 62
     3
100
AcDbLine
 10
140.8387788558556
 20
-135.7522761823962
 30
0.0
 11
165.8387788558558
 21
-135.7522761823962
 31
0.0
  0
LINE
  5
2EA
330
1F
100
AcDbEntity
  8
0
 62
     3
100
AcDbLine
 10
140.8387788558557
 20
-154.7522761823962
 30
0.0
 11
165.8387788558559
 21
-154.7522761823962
 31
0.0
  0
LINE
  5
2EB
330
1F
100
AcDbEntity
  8
0
 62
     3
100
AcDbLine
 10
140.8387788558557
 20
-145.2522761823963
 30
0.0
 11
165.8387788558558
 21
-145.2522761823963
 31
0.0
  0
CIRCLE
  5
2EC
330
1F
100
AcDbEntity
  8
0
 62
     3
100
AcDbCircle
 10
-370.1612211441444
 20
248.7306846425301
 30
0.0
 40
12.5
  0
LINE
  5
2ED
330
1F
100
AcDbEntity
  8
0
 62
     3
100
AcDbLine
 10
-355.1612211441445
 20
280.7306846425302
 30
0.0
 11
-355.1612211441445
 21
216.7306846425301
 31
0.0
  0
ARC
  5
2EE
330
1F
100
AcDbEntity
  8
0
 62
     3
100
AcDbCircle
 10
-360.1612211441445
 20
280.7306846425302
 30
0.0
 40
5.0
100
AcDbArc
 50
0.0000000000000114
 51
39.05012253615313
  0
ARC
  5
2EF
330
1F
100
AcDbEntity
  8
0
 62
     3
100
AcDbCircle
 10
-360.1612211441446
 20
216.7306846425301
 30
0.0
 40
5.0
100
AcDbArc
 50
320.9498774638469
 51
360.0
  0
LINE
  5
2F0
330
1F
100
AcDbEntity
  8
0
 62
     3
100
AcDbLine
 10
367.4792784098253
 20
-265.2522761823963
 30
0.0
 11
647.4792784098252
 21
-265.2522761823961
 31
0.0
  0
LINE
  5
2F1
330
1F
100
AcDbEntity
  8
0
 62
     3
100
AcDbLine
 10
367.4792784098252
 20
-236.2522761823963
 30
0.0
 11
472.3292784098252
 21
-236.2522761823961
 31
0.0
  0
LINE
  5
2F2
330
1F
100
AcDbEntity
  8
0
 62
     3
100
AcDbLine
 10
607.4792784098252
 20
-105.2522761823961
 30
0.0
 11
407.4792784098251
 21
-105.2522761823962
 31
0.0
  0
LINE
  5
2F3
330
1F
100
AcDbEntity
  8
0
 62
     3
100
AcDbLine
 10
477.5460193156337
 20
-165.2522761823962
 30
0.0
 11
427.4792784098251
 21
-165.2522761823962
 31
0.0
  0
LINE
  5
2F4
330
1F
100
AcDbEntity
  8
0
 62
     3
100
AcDbLine
 10
443.4792784098252
 20
-185.2522761823962
 30
0.0
 11
407.4792784098252
 21
-185.2522761823964
 31
0.0
  0
LINE
  5
2F5
330
1F
100
AcDbEntity
  8
0
 62
     3
100
AcDbLine
 10
407.4792784098251
 20
-105.2522761823962
 30
0.0
 11
407.4792784098252
 21
-201.2522761823962
 31
0.0
  0
LINE
  5
2F6
330
1F
100
AcDbEntity
  8
0
 62
     3
100
AcDbLine
 10
427.4792784098251
 20
-165.2522761823962
 30
0.0
 11
427.4792784098252
 21
-185.2522761823962
 31
0.0
  0
LINE
  5
2F7
330
1F
100
AcDbEntity
  8
0
 62
     3
100
AcDbLine
 10
407.4792784098252
 20
-201.2522761823962
 30
0.0
 11
439.4792784098251
 21
-201.2522761823962
 31
0.0
  0
LINE
  5
2F8
330
1F
100
AcDbEntity
  8
0
 62
     3
100
AcDbLine
 10
439.4792784098251
 20
-201.2522761823962
 30
0.0
 11
439.479278409825
 21
-185.2522761823962
 31
0.0
  0
LINE
  5
2F9
330
1F
100
AcDbEntity
  8
0
 62
     3
100
AcDbLine
 10
443.4792784098252
 20
-185.2522761823962
 30
0.0
 11
443.4792784098252
 21
-203.2522761823961
 31
0.0
  0
LINE
  5
2FA
330
1F
100
AcDbEntity
  8
0
 62
     3
100
AcDbLine
 10
443.4792784098252
 20
-203.2522761823961
 30
0.0
 11
440.9792784098252
 21
-203.2522761823961
 31
0.0
  0
LINE
  5
2FB
330
1F
100
AcDbEntity
  8
0
 62
     3
100
AcDbLine
 10
440.9792784098252
 20
-203.2522761823961
 30
0.0
 11
440.9792784098253
 21
-227.2522761823961
 31
0.0
  0
ARC
  5
2FC
330
1F
100
AcDbEntity
  8
0
 62
     3
100
AcDbCircle
 10
425.9792784098253
 20
-227.2522761823961
 30
0.0
 40
15.0
100
AcDbArc
 50
323.1301023541557
 51
360.0
  0
LINE
  5
2FD
330
1F
100
AcDbEntity
  8
0
 62
     3
100
AcDbLine
 10
539.6292784098255
 20
-240.2522761823961
 30
0.0
 11
475.3292784098252
 21
-240.2522761823961
 31
0.0
  0
LINE
  5
2FE
330
1F
100
AcDbEntity
  8
0
 62
     3
100
AcDbLine
 10
475.3292784098252
 20
-240.2522761823961
 30
0.0
 11
472.3292784098252
 21
-237.2522761823961
 31
0.0
  0
LINE
  5
2FF
330
1F
100
AcDbEntity
  8
0
 62
     3
100
AcDbLine
 10
472.3292784098251
 20
-165.2522761823961
 30
0.0
 11
472.3292784098252
 21
-237.2522761823961
 31
0.0
  0
LINE
  5
300
330
1F
100
AcDbEntity
  8
0
 62
     3
100
AcDbLine
 10
367.4792784098252
 20
-235.2522761823963
 30
0.0
 11
367.4792784098253
 21
-265.2522761823963
 31
0.0
  0
LINE
  5
301
330
1F
100
AcDbEntity
  8
0
 62
     3
100
AcDbLine
 10
367.4792784098252
 20
-235.2522761823963
 30
0.0
 11
407.4792784098252
 21
-235.2522761823963
 31
0.0
  0
LINE
  5
302
330
1F
100
AcDbEntity
  8
0
 62
     3
100
AcDbLine
 10
407.4792784098252
 20
-235.252276182396
 30
0.0
 11
407.4792784098252
 21
-236.2522761823961
 31
0.0
  0
CIRCLE
  5
303
330
1F
100
AcDbEntity
  8
0
 62
     3
100
AcDbCircle
 10
507.4792784098253
 20
-145.2522761823961
 30
0.0
 40
23.5
  0
ARC
  5
304
330
1F
100
AcDbEntity
  8
0
 62
     3
100
AcDbCircle
 10
498.4792784098253
 20
-145.2522761823961
 30
0.0
 40
37.0
100
AcDbArc
 50
90.0
 51
179.9999999999999
  0
LINE
  5
305
330
1F
100
AcDbEntity
  8
0
 62
     3
100
AcDbLine
 10
427.4792784098244
 20
-164.7522761823961
 30
0.0
 11
427.4792784098245
 21
-124.4444755558355
 31
0.0
  0
LINE
  5
306
330
1F
100
AcDbEntity
  8
0
 62
     3
100
AcDbLine
 10
429.1072237519152
 20
-119.9639251492575
 30
0.0
 11
492.0260739412968
 21
-108.8193768730168
 31
0.0
  0
ARC
  5
307
330
1F
100
AcDbEntity
  8
0
 62
     3
100
AcDbCircle
 10
432.4792784098245
 20
-124.4444755558355
 30
0.0
 40
5.0
100
AcDbArc
 50
100.0443797979685
 51
179.9999999999999
  0
LINE
  5
308
330
1F
100
AcDbEntity
  8
0
 62
     3
100
AcDbLine
 10
461.4792784098252
 20
-145.252276182396
 30
0.0
 11
461.4792784098252
 21
-164.7522761823961
 31
0.0
  0
ARC
  5
309
330
1F
100
AcDbEntity
  8
0
 62
     3
100
AcDbCircle
 10
507.4792784098253
 20
-145.2522761823961
 30
0.0
 40
36.0
100
AcDbArc
 50
213.5573097619185
 51
326.4426902380815
  0
LINE
  5
30A
330
1F
100
AcDbEntity
  8
0
 62
     3
100
AcDbLine
 10
477.4792784098244
 20
-165.1520249245273
 30
0.0
 11
477.4792784098255
 21
-161.752276182396
 31
0.0
  0
LINE
  5
30B
330
1F
100
AcDbEntity
  8
0
 62
     3
100
AcDbLine
 10
461.4792784098252
 20
-161.7522761823961
 30
0.0
 11
477.4792784098255
 21
-161.752276182396
 31
0.0
  0
LINE
  5
30C
330
1F
100
AcDbEntity
  8
0
 62
     3
100
AcDbLine
 10
424.9792784098244
 20
-164.7522761823961
 30
0.0
 11
467.4792784098252
 21
-164.7522761823961
 31
0.0
  0
LINE
  5
30D
330
1F
100
AcDbEntity
  8
0
 62
     3
100
AcDbLine
 10
467.4792784098252
 20
-164.7522761823961
 30
0.0
 11
467.4792784098257
 21
-164.2522761823963
 31
0.0
  0
ARC
  5
30E
330
1F
100
AcDbEntity
  8
0
 62
     3
100
AcDbCircle
 10
469.9792784098257
 20
-164.2522761823963
 30
0.0
 40
2.5
100
AcDbArc
 50
90.00000000000127
 51
179.9999999999999
  0
CIRCLE
  5
30F
330
1F
100
AcDbEntity
  8
0
 62
     3
100
AcDbCircle
 10
507.4792784098253
 20
-145.2522761823961
 30
0.0
 40
9.0
  0
CIRCLE
  5
310
330
1F
100
AcDbEntity
  8
0
 62
     3
100
AcDbCircle
 10
507.4792784098253
 20
-145.2522761823961
 30
0.0
 40
11.0
  0
LINE
  5
311
330
1F
100
AcDbEntity
  8
0
 62
     3
100
AcDbLine
 10
424.9792784098244
 20
-164.7522761823961
 30
0.0
 11
424.9792784098245
 21
-124.8872899207952
 31
0.0
  0
ARC
  5
312
330
1F
100
AcDbEntity
  8
0
 62
     3
100
AcDbCircle
 10
429.9792784098245
 20
-124.8872899207952
 30
0.0
 40
5.0
100
AcDbArc
 50
100.0443797979686
 51
179.9999999999999
  0
LINE
  5
313
330
1F
100
AcDbEntity
  8
0
 62
     3
100
AcDbLine
 10
442.4792784098245
 20
-105.2522761823962
 30
0.0
 11
442.4792784098245
 21
-109.2221050764991
 31
0.0
  0
ARC
  5
314
330
1F
100
AcDbEntity
  8
0
 62
     3
100
AcDbCircle
 10
437.4792784098244
 20
-109.2221050764991
 30
0.0
 40
5.0
100
AcDbArc
 50
281.3722824362343
 51
360.0
  0
LINE
  5
315
330
1F
100
AcDbEntity
  8
0
 62
     3
100
AcDbLine
 10
412.4792784098252
 20
-126.5031265236252
 30
0.0
 11
412.4792784098251
 21
-145.2522761823971
 31
0.0
  0
ARC
  5
316
330
1F
100
AcDbEntity
  8
0
 62
     3
100
AcDbCircle
 10
420.4792784098252
 20
-126.5031265236252
 30
0.0
 40
8.0
100
AcDbArc
 50
104.7372037439556
 51
179.9999999999997
  0
ARC
  5
317
330
1F
100
AcDbEntity
  8
0
 62
     3
100
AcDbCircle
 10
507.479278409825
 20
-457.252276182396
 30
0.0
 40
350.0
100
AcDbArc
 50
75.26279625604428
 51
104.7372037439556
  0
ARC
  5
318
330
1F
100
AcDbEntity
  8
0
 62
     3
100
AcDbCircle
 10
407.4792784098251
 20
-145.2522761823971
 30
0.0
 40
5.0
100
AcDbArc
 50
270.0
 51
360.0
  0
LINE
  5
319
330
1F
100
AcDbEntity
  8
0
 62
     3
100
AcDbLine
 10
647.4792784098252
 20
-236.2522761823965
 30
0.0
 11
542.6292784098253
 21
-236.2522761823963
 31
0.0
  0
LINE
  5
31A
330
1F
100
AcDbEntity
  8
0
 62
     3
100
AcDbLine
 10
537.4125375040167
 20
-165.2522761823962
 30
0.0
 11
587.4792784098252
 21
-165.2522761823963
 31
0.0
  0
LINE
  5
31B
330
1F
100
AcDbEntity
  8
0
 62
     3
100
AcDbLine
 10
571.4792784098252
 20
-185.2522761823963
 30
0.0
 11
607.4792784098252
 21
-185.2522761823965
 31
0.0
  0
LINE
  5
31C
330
1F
100
AcDbEntity
  8
0
 62
     3
100
AcDbLine
 10
607.4792784098254
 20
-105.2522761823963
 30
0.0
 11
607.4792784098252
 21
-201.2522761823964
 31
0.0
  0
LINE
  5
31D
330
1F
100
AcDbEntity
  8
0
 62
     3
100
AcDbLine
 10
587.4792784098252
 20
-165.2522761823963
 30
0.0
 11
587.4792784098252
 21
-185.2522761823963
 31
0.0
  0
LINE
  5
31E
330
1F
100
AcDbEntity
  8
0
 62
     3
100
AcDbLine
 10
607.4792784098252
 20
-201.2522761823964
 30
0.0
 11
575.4792784098252
 21
-201.2522761823963
 31
0.0
  0
LINE
  5
31F
330
1F
100
AcDbEntity
  8
0
 62
     3
100
AcDbLine
 10
575.4792784098252
 20
-201.2522761823963
 30
0.0
 11
575.4792784098254
 21
-185.2522761823963
 31
0.0
  0
LINE
  5
320
330
1F
100
AcDbEntity
  8
0
 62
     3
100
AcDbLine
 10
571.4792784098252
 20
-185.2522761823963
 30
0.0
 11
571.4792784098252
 21
-203.2522761823962
 31
0.0
  0
LINE
  5
321
330
1F
100
AcDbEntity
  8
0
 62
     3
100
AcDbLine
 10
571.4792784098252
 20
-203.2522761823962
 30
0.0
 11
573.9792784098252
 21
-203.2522761823963
 31
0.0
  0
LINE
  5
322
330
1F
100
AcDbEntity
  8
0
 62
     3
100
AcDbLine
 10
573.9792784098252
 20
-203.2522761823963
 30
0.0
 11
573.9792784098252
 21
-227.2522761823963
 31
0.0
  0
ARC
  5
323
330
1F
100
AcDbEntity
  8
0
 62
     3
100
AcDbCircle
 10
588.9792784098252
 20
-227.2522761823963
 30
0.0
 40
15.0
100
AcDbArc
 50
179.9999999999999
 51
216.8698976458441
  0
LINE
  5
324
330
1F
100
AcDbEntity
  8
0
 62
     3
100
AcDbLine
 10
539.629278409825
 20
-240.2522761823963
 30
0.0
 11
542.629278409825
 21
-237.2522761823963
 31
0.0
  0
LINE
  5
325
330
1F
100
AcDbEntity
  8
0
 62
     3
100
AcDbLine
 10
542.6292784098253
 20
-165.2522761823962
 30
0.0
 11
542.629278409825
 21
-237.2522761823963
 31
0.0
  0
LINE
  5
326
330
1F
100
AcDbEntity
  8
0
 62
     3
100
AcDbLine
 10
647.4792784098252
 20
-235.2522761823965
 30
0.0
 11
647.4792784098249
 21
-265.2522761823965
 31
0.0
  0
LINE
  5
327
330
1F
100
AcDbEntity
  8
0
 62
     3
100
AcDbLine
 10
647.4792784098252
 20
-235.2522761823965
 30
0.0
 11
607.4792784098252
 21
-235.2522761823964
 31
0.0
  0
LINE
  5
328
330
1F
100
AcDbEntity
  8
0
 62
     3
100
AcDbLine
 10
607.4792784098252
 20
-235.2522761823961
 30
0.0
 11
607.4792784098252
 21
-236.2522761823963
 31
0.0
  0
ARC
  5
329
330
1F
100
AcDbEntity
  8
0
 62
     3
100
AcDbCircle
 10
516.4792784098252
 20
-145.2522761823961
 30
0.0
 40
37.0
100
AcDbArc
 50
360.0
 51
89.99999999999994
  0
LINE
  5
32A
330
1F
100
AcDbEntity
  8
0
 62
     3
100
AcDbLine
 10
587.4792784098258
 20
-164.7522761823961
 30
0.0
 11
587.4792784098258
 21
-124.4444755558355
 31
0.0
  0
LINE
  5
32B
330
1F
100
AcDbEntity
  8
0
 62
     3
100
AcDbLine
 10
585.8513330677351
 20
-119.9639251492577
 30
0.0
 11
522.9324828783538
 21
-108.8193768730168
 31
0.0
  0
ARC
  5
32C
330
1F
100
AcDbEntity
  8
0
 62
     3
100
AcDbCircle
 10
582.4792784098258
 20
-124.4444755558356
 30
0.0
 40
5.0
100
AcDbArc
 50
360.0
 51
79.95562020203147
  0
LINE
  5
32D
330
1F
100
AcDbEntity
  8
0
 62
     3
100
AcDbLine
 10
553.4792784098252
 20
-145.2522761823961
 30
0.0
 11
553.4792784098252
 21
-164.7522761823961
 31
0.0
  0
LINE
  5
32E
330
1F
100
AcDbEntity
  8
0
 62
     3
100
AcDbLine
 10
537.4792784098261
 20
-165.1520249245274
 30
0.0
 11
537.4792784098249
 21
-161.752276182396
 31
0.0
  0
LINE
  5
32F
330
1F
100
AcDbEntity
  8
0
 62
     3
100
AcDbLine
 10
553.4792784098252
 20
-161.7522761823961
 30
0.0
 11
537.4792784098249
 21
-161.752276182396
 31
0.0
  0
LINE
  5
330
330
1F
100
AcDbEntity
  8
0
 62
     3
100
AcDbLine
 10
589.9792784098258
 20
-164.7522761823961
 30
0.0
 11
547.4792784098252
 21
-164.7522761823961
 31
0.0
  0
LINE
  5
331
330
1F
100
AcDbEntity
  8
0
 62
     3
100
AcDbLine
 10
547.4792784098252
 20
-164.7522761823961
 30
0.0
 11
547.4792784098247
 21
-164.2522761823963
 31
0.0
  0
ARC
  5
332
330
1F
100
AcDbEntity
  8
0
 62
     3
100
AcDbCircle
 10
544.9792784098247
 20
-164.2522761823963
 30
0.0
 40
2.5
100
AcDbArc
 50
360.0
 51
89.99999999999869
  0
LINE
  5
333
330
1F
100
AcDbEntity
  8
0
 62
     3
100
AcDbLine
 10
589.9792784098258
 20
-164.7522761823961
 30
0.0
 11
589.9792784098258
 21
-124.8872899207954
 31
0.0
  0
ARC
  5
334
330
1F
100
AcDbEntity
  8
0
 62
     3
100
AcDbCircle
 10
584.9792784098258
 20
-124.8872899207954
 30
0.0
 40
5.0
100
AcDbArc
 50
360.0
 51
79.9556202020313
  0
LINE
  5
335
330
1F
100
AcDbEntity
  8
0
 62
     3
100
AcDbLine
 10
572.4792784098261
 20
-105.2522761823963
 30
0.0
 11
572.4792784098261
 21
-109.2221050764993
 31
0.0
  0
ARC
  5
336
330
1F
100
AcDbEntity
  8
0
 62
     3
100
AcDbCircle
 10
577.4792784098261
 20
-109.2221050764993
 30
0.0
 40
5.0
100
AcDbArc
 50
179.9999999999999
 51
258.6277175637657
  0
LINE
  5
337
330
1F
100
AcDbEntity
  8
0
 62
     3
100
AcDbLine
 10
602.4792784098254
 20
-126.5031265236252
 30
0.0
 11
602.4792784098252
 21
-145.2522761823972
 31
0.0
  0
ARC
  5
338
330
1F
100
AcDbEntity
  8
0
 62
     3
100
AcDbCircle
 10
594.4792784098254
 20
-126.5031265236253
 30
0.0
 40
8.0
100
AcDbArc
 50
0.0000000000001908
 51
75.26279625604434
  0
ARC
  5
339
330
1F
100
AcDbEntity
  8
0
 62
     3
100
AcDbCircle
 10
607.4792784098252
 20
-145.2522761823972
 30
0.0
 40
5.0
100
AcDbArc
 50
179.9999999999999
 51
270.0
  0
LINE
  5
33A
330
1F
100
AcDbEntity
  8
0
 62
     3
100
AcDbLine
 10
406.4792784098252
 20
-103.2522761823961
 30
0.0
 11
608.4792784098252
 21
-103.2522761823961
 31
0.0
  0
LINE
  5
33B
330
1F
100
AcDbEntity
  8
0
 62
     3
100
AcDbLine
 10
608.4792784098252
 20
-103.2522761823961
 30
0.0
 11
610.4792784098252
 21
-105.2522761823961
 31
0.0
  0
LINE
  5
33C
330
1F
100
AcDbEntity
  8
0
 62
     3
100
AcDbLine
 10
406.4792784098252
 20
-103.2522761823961
 30
0.0
 11
404.4792784098251
 21
-105.2522761823961
 31
0.0
  0
LINE
  5
33D
330
1F
100
AcDbEntity
  8
0
 62
     3
100
AcDbLine
 10
610.4792784098252
 20
-165.2522761823963
 30
0.0
 11
610.4792784098252
 21
-105.2522761823961
 31
0.0
  0
LINE
  5
33E
330
1F
100
AcDbEntity
  8
0
 62
     3
100
AcDbLine
 10
404.479278409825
 20
-165.2522761823961
 30
0.0
 11
404.4792784098251
 21
-105.2522761823961
 31
0.0
  0
LINE
  5
33F
330
1F
100
AcDbEntity
  8
0
 62
     3
100
AcDbLine
 10
404.479278409825
 20
-165.2522761823961
 30
0.0
 11
407.4792784098252
 21
-165.2522761823961
 31
0.0
  0
LINE
  5
340
330
1F
100
AcDbEntity
  8
0
 62
     3
100
AcDbLine
 10
610.4792784098252
 20
-165.2522761823963
 30
0.0
 11
607.4792784098252
 21
-165.2522761823963
 31
0.0
  0
LINE
  5
341
330
1F
100
AcDbEntity
  8
0
 62
     3
100
AcDbLine
 10
424.9792784098253
 20
-236.2522761823961
 30
0.0
 11
424.9792784098252
 21
-215.2522761823963
 31
0.0
  0
LINE
  5
342
330
1F
100
AcDbEntity
  8
0
 62
     3
100
AcDbLine
 10
419.9792784098252
 20
-210.2522761823963
 30
0.0
 11
415.4792784098243
 21
-210.2522761823962
 31
0.0
  0
ARC
  5
343
330
1F
100
AcDbEntity
  8
0
 62
     3
100
AcDbCircle
 10
419.9792784098252
 20
-215.2522761823963
 30
0.0
 40
5.0
100
AcDbArc
 50
360.0
 51
89.99999999999972
  0
LINE
  5
344
330
1F
100
AcDbEntity
  8
0
 62
     3
100
AcDbLine
 10
410.4792784098243
 20
-205.2522761823962
 30
0.0
 11
410.479278409824
 21
-201.2522761823962
 31
0.0
  0
ARC
  5
345
330
1F
100
AcDbEntity
  8
0
 62
     3
100
AcDbCircle
 10
415.4792784098243
 20
-205.2522761823962
 30
0.0
 40
5.0
100
AcDbArc
 50
179.9999999999999
 51
270.0
  0
LINE
  5
346
330
1F
100
AcDbEntity
  8
0
 62
     3
100
AcDbLine
 10
589.9792784098249
 20
-236.2522761823964
 30
0.0
 11
589.9792784098249
 21
-225.4221491634739
 31
0.0
  0
LINE
  5
347
330
1F
100
AcDbEntity
  8
0
 62
     3
100
AcDbLine
 10
604.4792784098261
 20
-205.2522761823964
 30
0.0
 11
604.4792784098263
 21
-201.2522761823964
 31
0.0
  0
ARC
  5
348
330
1F
100
AcDbEntity
  8
0
 62
     3
100
AcDbCircle
 10
599.4792784098261
 20
-205.2522761823964
 30
0.0
 40
5.0
100
AcDbArc
 50
285.6677843624878
 51
359.9999999999999
  0
CIRCLE
  5
349
330
1F
100
AcDbEntity
  8
0
 62
     3
100
AcDbCircle
 10
-285.1612211441442
 20
-217.2522761823966
 30
0.0
 40
11.0
  0
LINE
  5
34A
330
1F
100
AcDbEntity
  8
0
 62
     3
100
AcDbLine
 10
-290.5463859512785
 20
-203.2522761823965
 30
0.0
 11
-467.7241265675618
 21
-203.2522761823966
 31
0.0
  0
CIRCLE
  5
34B
330
1F
100
AcDbEntity
  8
0
 62
     3
100
AcDbCircle
 10
-185.1612211441442
 20
-217.2522761823966
 30
0.0
 40
11.0
  0
CIRCLE
  5
34C
330
1F
100
AcDbEntity
  8
0
 62
     3
100
AcDbCircle
 10
-85.16122114414422
 20
-217.2522761823966
 30
0.0
 40
11.0
  0
LINE
  5
34D
330
1F
100
AcDbEntity
  8
0
 62
     3
100
AcDbLine
 10
39.83877885585578
 20
-203.2522761823963
 30
0.0
 11
-79.77605633701053
 21
-203.2522761823963
 31
0.0
  0
LINE
  5
34E
330
1F
100
AcDbEntity
  8
0
 62
     3
100
AcDbLine
 10
-90.54638595127791
 20
-203.2522761823963
 30
0.0
 11
-179.7760563370105
 21
-203.2522761823963
 31
0.0
  0
LINE
  5
34F
330
1F
100
AcDbEntity
  8
0
 62
     3
100
AcDbLine
 10
-190.5463859512779
 20
-203.2522761823963
 30
0.0
 11
-279.7760563370105
 21
-203.2522761823963
 31
0.0
  0
LINE
  5
350
330
1F
100
AcDbEntity
  8
0
 62
     3
100
AcDbLine
 10
-590.1612211441444
 20
316.28068464253
 30
0.0
 11
-590.1612211441444
 21
321.18068464253
 31
0.0
  0
ELLIPSE
  5
351
330
1F
100
AcDbEntity
  8
0
 62
     3
100
AcDbEllipse
 10
-598.6327656719996
 20
318.73068464253
 30
0.0
 11
0.0
 21
-6.500000000000114
 31
0.0
210
0.0
220
0.0
230
1.0
 40
0.4734643681837161
 41
3.141592653589796
 42
6.28318530717959
  0
ARC
  5
352
330
1F
100
AcDbEntity
  8
0
 62
     3
100
AcDbCircle
 10
-598.6875040388178
 20
323.23068464253
 30
0.0
 40
11.0
100
AcDbArc
 50
270.2851173036419
 51
320.8156075567417
  0
ARC
  5
353
330
1F
100
AcDbEntity
  8
0
 62
     3
100
AcDbCircle
 10
-598.6875040388178
 20
314.23068464253
 30
0.0
 40
11.0
100
AcDbArc
 50
39.18439244325833
 51
89.71488269635816
  0
LINE
  5
354
330
1F
100
AcDbEntity
  8
0
 62
     3
100
AcDbLine
 10
-601.2719848779827
 20
325.23068464253
 30
0.0
 11
-601.2719848779826
 21
325.73068464253
 31
0.0
  0
LINE
  5
355
330
1F
100
AcDbEntity
  8
0
 62
     3
100
AcDbLine
 10
-601.2719848779826
 20
335.7306846425299
 30
0.0
 11
-601.2719848779826
 21
325.2305484467413
 31
0.0
  0
LINE
  5
356
330
1F
100
AcDbEntity
  8
0
 62
     3
100
AcDbLine
 10
-601.2719848779826
 20
312.2306846425299
 30
0.0
 11
-601.2719848779826
 21
185.2303481132517
 31
0.0
  0
LINE
  5
357
330
1F
100
AcDbEntity
  8
0
 62
     3
100
AcDbLine
 10
-606.1161588210323
 20
-171.5536938087759
 30
0.0
 11
-626.416280071274
 21
-183.2739742771848
 31
0.0
  0
LINE
  5
358
330
1F
100
AcDbEntity
  8
0
 62
     3
100
AcDbLine
 10
-635.0589986230116
 20
-206.4758190470892
 30
0.0
 11
-630.1436866815865
 21
-188.1316251466403
 31
0.0
  0
LINE
  5
359
330
1F
100
AcDbEntity
  8
0
 62
     3
100
AcDbLine
 10
-623.2122919717052
 20
-197.7522761823967
 30
0.0
 11
-629.563144932791
 21
-208.7522761823967
 31
0.0
  0
LINE
  5
35A
330
1F
100
AcDbEntity
  8
0
 62
     3
100
AcDbLine
 10
-618.882164952783
 20
-195.2522761823967
 30
0.0
 11
-611.5057964637721
 21
-195.2522761823967
 31
0.0
  0
ARC
  5
35B
330
1F
100
AcDbEntity
  8
0
 62
     3
100
AcDbCircle
 10
-611.5057964637721
 20
-200.2522761823967
 30
0.0
 40
5.0
100
AcDbArc
 50
354.9999999999998
 51
90.0
  0
ARC
  5
35C
330
1F
100
AcDbEntity
  8
0
 62
     3
100
AcDbCircle
 10
-608.6161588210323
 20
-167.2235667898537
 30
0.0
 40
5.0
100
AcDbArc
 50
300.0000000000001
 51
354.9999999999998
  0
ARC
  5
35D
330
1F
100
AcDbEntity
  8
0
 62
     3
100
AcDbCircle
 10
-622.4162800712738
 20
-190.2021775074604
 30
0.0
 40
8.0
100
AcDbArc
 50
120.0
 51
165.0000000000001
  0
ARC
  5
35E
330
1F
100
AcDbEntity
  8
0
 62
     3
100
AcDbCircle
 10
-618.882164952783
 20
-200.2522761823967
 30
0.0
 40
5.0
100
AcDbArc
 50
90.0
 51
150.0000000000001
  0
ARC
  5
35F
330
1F
100
AcDbEntity
  8
0
 62
     3
100
AcDbCircle
 10
-632.1612211441444
 20
-207.2522761823967
 30
0.0
 40
3.0
100
AcDbArc
 50
165.0000000000003
 51
330.0
  0
LINE
  5
360
330
1F
100
AcDbEntity
  8
0
 62
     3
100
AcDbLine
 10
-634.1612211441446
 20
294.7306846425299
 30
0.0
 11
-605.8620373702776
 21
294.7306846425299
 31
0.0
  0
LINE
  5
361
330
1F
100
AcDbEntity
  8
0
 62
     3
100
AcDbLine
 10
-634.1612211441446
 20
316.7306846425299
 30
0.0
 11
-605.8620373702776
 21
316.7306846425299
 31
0.0
  0
LINE
  5
362
330
1F
100
AcDbEntity
  8
0
 62
     3
100
AcDbLine
 10
-603.8620373702776
 20
314.7306846425299
 30
0.0
 11
-603.8620373702776
 21
296.7306846425299
 31
0.0
  0
LINE
  5
363
330
1F
100
AcDbEntity
  8
0
 62
     3
100
AcDbLine
 10
-629.2860358121311
 20
314.7306846425299
 30
0.0
 11
-629.2860358121311
 21
296.7306846425299
 31
0.0
  0
ELLIPSE
  5
364
330
1F
100
AcDbEntity
  8
0
 62
     3
100
AcDbEllipse
 10
-605.8620373702776
 20
321.7306846425299
 30
0.0
 11
0.0
 21
-5.0
 31
0.0
210
0.0
220
0.0
230
1.0
 40
0.4
 41
0.0
 42
1.570796326794497
  0
ELLIPSE
  5
365
330
1F
100
AcDbEntity
  8
0
 62
     3
100
AcDbEllipse
 10
-605.8620373702776
 20
289.7306846425299
 30
0.0
 11
0.0
 21
5.0
 31
0.0
210
0.0
220
0.0
230
1.0
 40
0.4
 41
4.712388980385089
 42
6.283185307179586
  0
ELLIPSE
  5
366
330
1F
100
AcDbEntity
  8
0
 62
     3
100
AcDbEllipse
 10
-634.1612211441446
 20
312.7306846425299
 30
0.0
 11
0.0
 21
-4.0
 31
0.0
210
0.0
220
0.0
230
1.0
 40
0.25
 41
3.141592653589793
 42
4.71238898038494
  0
ELLIPSE
  5
367
330
1F
100
AcDbEntity
  8
0
 62
     3
100
AcDbEllipse
 10
-634.1612211441446
 20
298.7306846425299
 30
0.0
 11
0.0
 21
-4.0
 31
0.0
210
0.0
220
0.0
230
1.0
 40
0.25
 41
4.71238898038494
 42
6.283185307179586
  0
LINE
  5
368
330
1F
100
AcDbEntity
  8
0
 62
     3
100
AcDbLine
 10
-610.1612211441446
 20
293.573819475511
 30
0.0
 11
-610.1612211441446
 21
294.7306846425299
 31
0.0
  0
LINE
  5
369
330
1F
100
AcDbEntity
  8
0
 62
     3
100
AcDbLine
 10
-610.1612211441446
 20
316.7306846425299
 30
0.0
 11
-610.1612211441446
 21
335.7306846425299
 31
0.0
  0
LINE
  5
36A
330
1F
100
AcDbEntity
  8
0
 62
     3
100
AcDbLine
 10
-627.1612211441446
 20
276.2306846425294
 30
0.0
 11
-627.1612211441446
 21
294.7306846425299
 31
0.0
  0
LINE
  5
36B
330
1F
100
AcDbEntity
  8
0
 62
     3
100
AcDbLine
 10
-627.1612211441446
 20
316.7306846425299
 30
0.0
 11
-627.1612211441446
 21
321.2306846425299
 31
0.0
  0
LINE
  5
36C
330
1F
100
AcDbEntity
  8
0
 62
     3
100
AcDbLine
 10
-635.1612211441446
 20
176.23068464253
 30
0.0
 11
-635.1612211441444
 21
239.2306846425294
 31
0.0
  0
ARC
  5
36D
330
1F
100
AcDbEntity
  8
0
 62
     3
100
AcDbCircle
 10
-600.1612211441445
 20
161.73068464253
 30
0.0
 40
10.0
100
AcDbArc
 50
180.0
 51
270.0
  0
LINE
  5
36E
330
1F
100
AcDbEntity
  8
0
 62
     3
100
AcDbLine
 10
-606.1612211441446
 20
211.8875498095456
 30
0.0
 11
-605.7313235557855
 21
211.8875498095441
 31
0.0
  0
ARC
  5
36F
330
1F
100
AcDbEntity
  8
0
 62
     3
100
AcDbCircle
 10
-605.7313235557855
 20
214.8875498095441
 30
0.0
 40
3.0
100
AcDbArc
 50
269.9999999999991
 51
0.0000000000000568
  0
ARC
  5
370
330
1F
100
AcDbEntity
  8
0
 62
     3
100
AcDbCircle
 10
-595.1612211441443
 20
176.23068464253
 30
0.0
 40
40.0
100
AcDbArc
 50
180.0
 51
270.0
  0
ARC
  5
371
330
1F
100
AcDbEntity
  8
0
 62
     3
100
AcDbCircle
 10
-610.1612211441444
 20
248.73068464253
 30
0.0
 40
9.5
100
AcDbArc
 50
270.0000000000001
 51
321.452746334796
  0
LINE
  5
372
330
1F
100
AcDbEntity
  8
0
 62
     3
100
AcDbLine
 10
-610.1612211441444
 20
239.23068464253
 30
0.0
 11
-635.1612211441444
 21
239.2306846425294
 31
0.0
  0
ARC
  5
373
330
1F
100
AcDbEntity
  8
0
 62
     3
100
AcDbCircle
 10
-610.1612211441444
 20
248.73068464253
 30
0.0
 40
22.5
100
AcDbArc
 50
270.0000000000001
 51
289.2819877384048
  0
LINE
  5
374
330
1F
100
AcDbEntity
  8
0
 62
     3
100
AcDbLine
 10
-610.1612211441446
 20
226.23068464253
 30
0.0
 11
-622.1612211441444
 21
226.2306846425306
 31
0.0
  0
ARC
  5
375
330
1F
100
AcDbEntity
  8
0
 62
     3
100
AcDbCircle
 10
-622.1612211441446
 20
221.2306846425306
 30
0.0
 40
5.0
100
AcDbArc
 50
89.99999999999841
 51
180.0000000000001
  0
ARC
  5
376
330
1F
100
AcDbEntity
  8
0
 62
     3
100
AcDbCircle
 10
-595.1612211441443
 20
176.23068464253
 30
0.0
 40
32.0
100
AcDbArc
 50
180.0
 51
270.0
  0
LINE
  5
377
330
1F
100
AcDbEntity
  8
0
 62
     3
100
AcDbLine
 10
-626.4913481630671
 20
223.73068464253
 30
0.0
 11
-635.1612211441446
 21
223.73068464253
 31
0.0
  0
LINE
  5
378
330
1F
100
AcDbEntity
  8
0
 62
     3
100
AcDbLine
 10
-590.1612211441443
 20
181.18068464253
 30
0.0
 11
-590.1612211441443
 21
176.28068464253
 31
0.0
  0
ELLIPSE
  5
379
330
1F
100
AcDbEntity
  8
0
 62
     3
100
AcDbEllipse
 10
-598.6327656719994
 20
178.73068464253
 30
0.0
 11
0.0
 21
6.5
 31
0.0
210
0.0
220
0.0
230
1.0
 40
0.4734643681837162
 41
0.0
 42
3.141592653589793
  0
ARC
  5
37A
330
1F
100
AcDbEntity
  8
0
 62
     3
100
AcDbCircle
 10
-598.6875040388177
 20
174.2306846425299
 30
0.0
 40
11.0
100
AcDbArc
 50
39.18439244325833
 51
89.71488269635816
  0
ARC
  5
37B
330
1F
100
AcDbEntity
  8
0
 62
     3
100
AcDbCircle
 10
-598.6875040388178
 20
183.23068464253
 30
0.0
 40
11.0
100
AcDbArc
 50
270.2851173036419
 51
320.8156075567417
  0
LINE
  5
37C
330
1F
100
AcDbEntity
  8
0
 62
     3
100
AcDbLine
 10
-601.2719848779826
 20
172.2306846425299
 30
0.0
 11
-601.2719848779825
 21
171.7306846425299
 31
0.0
  0
LINE
  5
37D
330
1F
100
AcDbEntity
  8
0
 62
     3
100
AcDbLine
 10
-601.2719848779825
 20
161.73068464253
 30
0.0
 11
-601.2719848779825
 21
172.2308208383186
 31
0.0
  0
LINE
  5
37E
330
1F
100
AcDbEntity
  8
0
 62
     3
100
AcDbLine
 10
-634.1612211441446
 20
202.73068464253
 30
0.0
 11
-605.8620373702776
 21
202.73068464253
 31
0.0
  0
LINE
  5
37F
330
1F
100
AcDbEntity
  8
0
 62
     3
100
AcDbLine
 10
-634.1612211441445
 20
180.73068464253
 30
0.0
 11
-605.8620373702775
 21
180.73068464253
 31
0.0
  0
LINE
  5
380
330
1F
100
AcDbEntity
  8
0
 62
     3
100
AcDbLine
 10
-603.8620373702775
 20
182.73068464253
 30
0.0
 11
-603.8620373702776
 21
200.73068464253
 31
0.0
  0
LINE
  5
381
330
1F
100
AcDbEntity
  8
0
 62
     3
100
AcDbLine
 10
-629.286035812131
 20
182.73068464253
 30
0.0
 11
-629.2860358121311
 21
200.73068464253
 31
0.0
  0
ELLIPSE
  5
382
330
1F
100
AcDbEntity
  8
0
 62
     3
100
AcDbEllipse
 10
-605.8620373702775
 20
175.73068464253
 30
0.0
 11
0.0
 21
5.000000000000028
 31
0.0
210
0.0
220
0.0
230
1.0
 40
0.4
 41
4.712388980385089
 42
6.28318530717959
  0
ELLIPSE
  5
383
330
1F
100
AcDbEntity
  8
0
 62
     3
100
AcDbEllipse
 10
-605.8620373702776
 20
207.73068464253
 30
0.0
 11
0.0
 21
-5.0
 31
0.0
210
0.0
220
0.0
230
1.0
 40
0.4
 41
0.0000000000000044
 42
1.570796326794897
  0
ELLIPSE
  5
384
330
1F
100
AcDbEntity
  8
0
 62
     3
100
AcDbEllipse
 10
-634.1612211441445
 20
184.73068464253
 30
0.0
 11
0.0
 21
-4.000000000000455
 31
0.0
210
0.0
220
0.0
230
1.0
 40
0.25
 41
4.71238898038494
 42
6.283185307179593
  0
ELLIPSE
  5
385
330
1F
100
AcDbEntity
  8
0
 62
     3
100
AcDbEllipse
 10
-634.1612211441446
 20
198.73068464253
 30
0.0
 11
0.0
 21
-4.0
 31
0.0
210
0.0
220
0.0
230
1.0
 40
0.25
 41
-3.141592653589787
 42
-1.570796326794646
  0
LINE
  5
386
330
1F
100
AcDbEntity
  8
0
 62
     3
100
AcDbLine
 10
-610.1612211441446
 20
203.887549809549
 30
0.0
 11
-610.1612211441446
 21
202.73068464253
 31
0.0
  0
LINE
  5
387
330
1F
100
AcDbEntity
  8
0
 62
     3
100
AcDbLine
 10
-610.1612211441445
 20
180.73068464253
 30
0.0
 11
-610.1612211441445
 21
161.73068464253
 31
0.0
  0
LINE
  5
388
330
1F
100
AcDbEntity
  8
0
 62
     3
100
AcDbLine
 10
-627.1612211441446
 20
221.2306846425306
 30
0.0
 11
-627.1612211441446
 21
202.73068464253
 31
0.0
  0
LINE
  5
389
330
1F
100
AcDbEntity
  8
0
 62
     3
100
AcDbLine
 10
-627.1612211441445
 20
180.73068464253
 30
0.0
 11
-627.1612211441445
 21
176.23068464253
 31
0.0
  0
LINE
  5
38A
330
1F
100
AcDbEntity
  8
0
 62
     3
100
AcDbLine
 10
542.6292784098251
 20
-233.2522761823961
 30
0.0
 11
535.629278409825
 21
-240.2522761823961
 31
0.0
  0
LINE
  5
38B
330
1F
100
AcDbEntity
  8
0
 62
     3
100
AcDbLine
 10
472.3292784098252
 20
-233.2522761823961
 30
0.0
 11
479.3292784098252
 21
-240.2522761823961
 31
0.0
  0
LINE
  5
38C
330
1F
100
AcDbEntity
  8
0
 62
     3
100
AcDbLine
 10
542.6292784098251
 20
-223.2522761823961
 30
0.0
 11
538.4792784098252
 21
-223.2522761823961
 31
0.0
  0
LINE
  5
38D
330
1F
100
AcDbEntity
  8
0
 62
     3
100
AcDbLine
 10
535.4792784098252
 20
-220.2522761823961
 30
0.0
 11
535.4792784098252
 21
-167.8796931803656
 31
0.0
  0
ARC
  5
38E
330
1F
100
AcDbEntity
  8
0
 62
     3
100
AcDbCircle
 10
538.4792784098252
 20
-220.2522761823961
 30
0.0
 40
3.0
100
AcDbArc
 50
180.0
 51
270.0
  0
LINE
  5
38F
330
1F
100
AcDbEntity
  8
0
 62
     3
100
AcDbLine
 10
472.3292784098253
 20
-223.2522761823961
 30
0.0
 11
476.4792784098252
 21
-223.2522761823961
 31
0.0
  0
LINE
  5
390
330
1F
100
AcDbEntity
  8
0
 62
     3
100
AcDbLine
 10
479.4792784098252
 20
-220.2522761823961
 30
0.0
 11
479.4792784098251
 21
-167.8796931803656
 31
0.0
  0
ARC
  5
391
330
1F
100
AcDbEntity
  8
0
 62
     3
100
AcDbCircle
 10
476.4792784098252
 20
-220.2522761823961
 30
0.0
 40
3.0
100
AcDbArc
 50
270.0000000000001
 51
0.0000000000000568
  0
LINE
  5
392
330
1F
100
AcDbEntity
  8
0
 62
     3
100
AcDbLine
 10
-361.1612211441442
 20
-261.2522761823965
 30
0.0
 11
-361.1612211441442
 21
-273.2522761823965
 31
0.0
  0
LINE
  5
393
330
1F
100
AcDbEntity
  8
0
 62
     3
100
AcDbLine
 10
-379.1612211441442
 20
-273.2522761823965
 30
0.0
 11
-379.1612211441442
 21
-261.2522761823966
 31
0.0
  0
LINE
  5
394
330
1F
100
AcDbEntity
  8
0
 62
     3
100
AcDbLine
 10
-361.1612211441442
 20
-261.2522761823965
 30
0.0
 11
-379.1612211441442
 21
-261.2522761823966
 31
0.0
  0
LINE
  5
395
330
1F
100
AcDbEntity
  8
0
 62
     3
100
AcDbLine
 10
-379.1612211441442
 20
-273.2522761823965
 30
0.0
 11
-361.1612211441442
 21
-273.2522761823965
 31
0.0
  0
LINE
  5
396
330
1F
100
AcDbEntity
  8
0
 62
     3
100
AcDbLine
 10
-635.1612211441442
 20
-265.2522761823967
 30
0.0
 11
-379.1612211441442
 21
-265.2522761823965
 31
0.0
  0
LINE
  5
397
330
1F
100
AcDbEntity
  8
0
 62
     3
100
AcDbLine
 10
-361.1612211441442
 20
-265.2522761823965
 30
0.0
 11
64.83877885585565
 21
-265.2522761823963
 31
0.0
  0
LINE
  5
398
330
1F
100
AcDbEntity
  8
0
 62
     3
100
AcDbLine
 10
399.9792784098253
 20
-273.2522761823956
 30
0.0
 11
399.9792784098253
 21
-265.2522761823959
 31
0.0
  0
LINE
  5
399
330
1F
100
AcDbEntity
  8
0
 62
     3
100
AcDbLine
 10
424.9792784098253
 20
-265.2522761823964
 30
0.0
 11
424.9792784098253
 21
-273.2522761823955
 31
0.0
  0
LINE
  5
39A
330
1F
100
AcDbEntity
  8
0
 62
     3
100
AcDbLine
 10
399.9792784098253
 20
-273.2522761823956
 30
0.0
 11
424.9792784098253
 21
-273.2522761823955
 31
0.0
  0
LINE
  5
39B
330
1F
100
AcDbEntity
  8
0
 62
     3
100
AcDbLine
 10
614.9792784098249
 20
-273.2522761823955
 30
0.0
 11
614.9792784098249
 21
-265.2522761823958
 31
0.0
  0
LINE
  5
39C
330
1F
100
AcDbEntity
  8
0
 62
     3
100
AcDbLine
 10
589.9792784098249
 20
-265.2522761823963
 30
0.0
 11
589.9792784098252
 21
-273.2522761823954
 31
0.0
  0
LINE
  5
39D
330
1F
100
AcDbEntity
  8
0
 62
     3
100
AcDbLine
 10
614.9792784098249
 20
-273.2522761823955
 30
0.0
 11
589.9792784098252
 21
-273.2522761823954
 31
0.0
  0
LINE
  5
39E
330
1F
100
AcDbEntity
  8
0
 62
     3
100
AcDbLine
 10
-379.6612211441445
 20
128.7306846425301
 30
0.0
 11
-379.6612211441445
 21
109.0125222209223
 31
0.0
  0
LINE
  5
39F
330
1F
100
AcDbEntity
  8
0
 62
     3
100
AcDbLine
 10
-360.6612211441445
 20
128.7306846425301
 30
0.0
 11
-360.6612211441445
 21
108.7306846425301
 31
0.0
  0
ARC
  5
3A0
330
1F
100
AcDbEntity
  8
0
 62
     3
100
AcDbCircle
 10
-370.1612211441445
 20
368.7306846425302
 30
0.0
 40
9.5
100
AcDbArc
 50
180.0000000000001
 51
0.0000000000000568
  0
ARC
  5
3A1
330
1F
100
AcDbEntity
  8
0
 62
     3
100
AcDbCircle
 10
-370.1612211441445
 20
368.7306846425302
 30
0.0
 40
22.5
100
AcDbArc
 50
180.0000000000001
 51
0.0000000000000568
  0
LINE
  5
3A2
330
1F
100
AcDbEntity
  8
0
 62
     3
100
AcDbLine
 10
-347.6612211441445
 20
368.7306846425302
 30
0.0
 11
-347.6612211441447
 21
388.7306846425302
 31
0.0
  0
LINE
  5
3A3
330
1F
100
AcDbEntity
  8
0
 62
     3
100
AcDbLine
 10
-392.6612211441445
 20
368.7306846425302
 30
0.0
 11
-392.6612211441447
 21
387.140753766939
 31
0.0
  0
LINE
  5
3A4
330
1F
100
AcDbEntity
  8
0
 62
     3
100
AcDbLine
 10
-379.6612211441446
 20
368.7306846425302
 30
0.0
 11
-379.6612211441446
 21
388.4488470641379
 31
0.0
  0
LINE
  5
3A5
330
1F
100
AcDbEntity
  8
0
 62
     3
100
AcDbLine
 10
-360.6612211441446
 20
368.7306846425302
 30
0.0
 11
-360.6612211441446
 21
388.7306846425302
 31
0.0
  0
LINE
  5
3A6
330
1F
100
AcDbEntity
  8
0
 62
     3
100
AcDbLine
 10
-490.1612211441444
 20
-104.2522761823966
 30
0.0
 11
-489.1612211441444
 21
-103.2522761823966
 31
0.0
  0
LINE
  5
3A7
330
1F
100
AcDbEntity
  8
0
 62
     3
100
AcDbLine
 10
-225.1612211441443
 20
-104.2522761823965
 30
0.0
 11
-226.1612211441443
 21
-103.2522761823965
 31
0.0
  0
LINE
  5
3A8
330
1F
100
AcDbEntity
  8
0
 62
     3
100
AcDbLine
 10
-635.1612211441442
 20
-236.2522761823967
 30
0.0
 11
-446.661221144144
 21
-236.2522761823967
 31
0.0
  0
LINE
  5
3A9
330
1F
100
AcDbEntity
  8
0
 62
     3
100
AcDbLine
 10
-438.661221144144
 20
-236.2522761823967
 30
0.0
 11
-420.1612211441442
 21
-236.2522761823966
 31
0.0
  0
LINE
  5
3AA
330
1F
100
AcDbEntity
  8
0
 62
     3
100
AcDbLine
 10
498.479278409825
 20
-265.2522761823962
 30
0.0
 11
498.479278409825
 21
-261.2522761823962
 31
0.0
  0
LINE
  5
3AB
330
1F
100
AcDbEntity
  8
0
 62
     3
100
AcDbLine
 10
516.4792784098249
 20
-265.2522761823962
 30
0.0
 11
516.4792784098249
 21
-261.2522761823962
 31
0.0
  0
LINE
  5
3AC
330
1F
100
AcDbEntity
  8
0
 62
     3
100
AcDbLine
 10
498.479278409825
 20
-261.2522761823962
 30
0.0
 11
516.4792784098249
 21
-261.2522761823962
 31
0.0
  0
LINE
  5
3AD
330
1F
100
AcDbEntity
  8
0
 62
     3
100
AcDbLine
 10
497.979278409825
 20
-265.2522761823962
 30
0.0
 11
497.979278409825
 21
-240.2522761823961
 31
0.0
  0
LINE
  5
3AE
330
1F
100
AcDbEntity
  8
0
 62
     3
100
AcDbLine
 10
516.979278409825
 20
-265.2522761823962
 30
0.0
 11
516.979278409825
 21
-240.2522761823961
 31
0.0
  0
LINE
  5
3AF
330
1F
100
AcDbEntity
  8
0
  6
CENTER
 62
     2
100
AcDbLine
 10
-370.1612211441443
 20
-226.3004872080604
 30
0.0
 11
-370.1612211441442
 21
-276.155362322107
 31
0.0
  0
LINE
  5
3B0
330
1F
100
AcDbEntity
  8
0
  6
CENTER
 62
     2
100
AcDbLine
 10
-370.1612211441445
 20
383.7306846425302
 30
0.0
 11
-370.1612211441445
 21
113.7306846425303
 31
0.0
  0
LINE
  5
3B1
330
1F
100
AcDbEntity
  8
0
  6
CENTER
 62
     2
100
AcDbLine
 10
8.256791099676619
 20
-145.2522761823963
 30
0.0
 11
189.8387788558559
 21
-145.2522761823962
 31
0.0
  0
LINE
  5
3B2
330
1F
100
AcDbEntity
  8
0
  6
CENTER
 62
     2
100
AcDbLine
 10
467.4792784098253
 20
-145.2522761823961
 30
0.0
 11
547.4792784098253
 21
-145.2522761823961
 31
0.0
  0
LINE
  5
3B3
330
1F
100
AcDbEntity
  8
0
  6
CENTER
 62
     2
100
AcDbLine
 10
154.8387788558557
 20
-345.2522761823962
 30
0.0
 11
284.8387788558557
 21
-345.2522761823961
 31
0.0
  0
LINE
  5
3B4
330
1F
100
AcDbEntity
  8
0
  6
CENTER
 62
     2
100
AcDbLine
 10
606.2121504423776
 20
-217.2522761823963
 30
0.0
 11
431.674792444133
 21
-217.2522761823961
 31
0.0
  0
LINE
  5
3B5
330
1F
100
AcDbEntity
  8
0
  6
CENTER
 62
     2
100
AcDbLine
 10
507.479278409825
 20
-103.2522761823961
 30
0.0
 11
507.479278409825
 21
-265.2522761823962
 31
0.0
  0
LINE
  5
3B6
330
1F
100
AcDbEntity
  8
0
  6
CENTER
 62
     2
100
AcDbLine
 10
-390.1612211441444
 20
128.7306846425301
 30
0.0
 11
-350.1612211441444
 21
128.7306846425301
 31
0.0
  0
LINE
  5
3B7
330
1F
100
AcDbEntity
  8
0
  6
CENTER
 62
     2
100
AcDbLine
 10
-285.1612211441445
 20
368.7306846425302
 30
0.0
 11
-175.1612211441445
 21
368.7306846425302
 31
0.0
  0
LINE
  5
3B8
330
1F
100
AcDbEntity
  8
0
  6
CENTER
 62
     2
100
AcDbLine
 10
-270.1612211441445
 20
383.7306846425302
 30
0.0
 11
-270.1612211441445
 21
353.7306846425302
 31
0.0
  0
LINE
  5
3B9
330
1F
100
AcDbEntity
  8
0
  6
CENTER
 62
     2
100
AcDbLine
 10
-190.1612211441445
 20
383.7306846425302
 30
0.0
 11
-190.1612211441445
 21
353.7306846425302
 31
0.0
  0
LINE
  5
3BA
330
1F
100
AcDbEntity
  8
0
  6
CENTER
 62
     2
100
AcDbLine
 10
-285.1612211441444
 20
128.7306846425302
 30
0.0
 11
-175.1612211441443
 21
128.7306846425304
 31
0.0
  0
LINE
  5
3BB
330
1F
100
AcDbEntity
  8
0
  6
CENTER
 62
     2
100
AcDbLine
 10
-270.1612211441444
 20
113.7306846425302
 30
0.0
 11
-270.1612211441444
 21
143.7306846425302
 31
0.0
  0
LINE
  5
3BC
330
1F
100
AcDbEntity
  8
0
  6
CENTER
 62
     2
100
AcDbLine
 10
-190.1612211441443
 20
113.7306846425303
 30
0.0
 11
-190.1612211441443
 21
143.7306846425303
 31
0.0
  0
LINE
  5
3BD
330
1F
100
AcDbEntity
  8
0
  6
CENTER
 62
     2
100
AcDbLine
 10
-390.1612211441445
 20
368.7306846425302
 30
0.0
 11
-350.1612211441445
 21
368.7306846425302
 31
0.0
  0
LINE
  5
3BE
330
1F
100
AcDbEntity
  8
0
  6
CENTER
 62
     2
100
AcDbLine
 10
-265.2617714452102
 20
248.73068464253
 30
0.0
 11
189.8387788558559
 21
248.7306846425305
 31
0.0
  0
LINE
  5
3BF
330
1F
100
AcDbEntity
  8
0
  6
CENTER
 62
     2
100
AcDbLine
 10
-635.1612211441444
 20
248.73068464253
 30
0.0
 11
-436.7835837173721
 21
248.73068464253
 31
0.0
  0
LINE
  5
3C0
330
1F
100
AcDbEntity
  8
0
  6
CENTER
 62
     2
100
AcDbLine
 10
-420.4481730247852
 20
248.73068464253
 30
0.0
 11
-281.9238903516488
 21
248.73068464253
 31
0.0
  0
LINE
  5
3C1
330
1F
100
AcDbEntity
  8
0
  6
CENTER
 62
     2
100
AcDbLine
 10
-610.1612211441444
 20
263.7306846425299
 30
0.0
 11
-610.1612211441444
 21
233.73068464253
 31
0.0
  0
LINE
  5
3C2
330
1F
100
AcDbEntity
  8
0
  6
CENTER
 62
     2
100
AcDbLine
 10
-610.1612211441444
 20
-236.2522761823967
 30
0.0
 11
-610.1612211441444
 21
-270.2522761823967
 31
0.0
  0
LINE
  5
3C3
330
1F
100
AcDbEntity
  8
0
  6
CENTER
 62
     2
100
AcDbLine
 10
39.83877885585567
 20
-231.6238359225728
 30
0.0
 11
39.83877885585567
 21
-270.2522761823967
 31
0.0
  0
LINE
  5
3C4
330
1F
100
AcDbEntity
  8
0
  6
CENTER
 62
     2
100
AcDbLine
 10
445.2029438001784
 20
415.7482158786798
 30
0.0
 11
655.2029438001785
 21
415.7482158786798
 31
0.0
  0
INSERT
  5
3C5
330
1F
100
AcDbEntity
  8
0
  6
CONTINUOUS
100
AcDbBlockReference
  2
GROUP_1
 10
0.0
 20
0.0
 30
0.0
  0
INSERT
  5
3C6
330
1F
100
AcDbEntity
  8
0
  6
CONTINUOUS
100
AcDbBlockReference
  2
GROUP_2
 10
0.0
 20
0.0
 30
0.0
  0
INSERT
  5
3C7
330
1F
100
AcDbEntity
  8
0
  6
CONTINUOUS
100
AcDbBlockReference
  2
GROUP_3
 10
0.0
 20
0.0
 30
0.0
  0
INSERT
  5
3C8
330
1F
100
AcDbEntity
  8
0
  6
CONTINUOUS
100
AcDbBlockReference
  2
GROUP_7
 10
0.0
 20
0.0
 30
0.0
  0
LINE
  5
3C9
330
1F
100
AcDbEntity
  8
0
 62
     7
100
AcDbLine
 10
130.3387788558557
 20
-124.7522761823265
 30
0.0
 11
150.8387788558557
 21
-124.7522761823901
 31
0.0
  0
LINE
  5
3CA
330
1F
100
AcDbEntity
  8
0
 62
     7
100
AcDbLine
 10
130.3387788558557
 20
-165.7522761824268
 30
0.0
 11
150.8387788558557
 21
-165.7522761823993
 31
0.0
  0
LINE
  5
3CB
330
1F
100
AcDbEntity
  8
0
 62
     7
100
AcDbLine
 10
156.8387788558557
 20
-121.2522761823961
 30
0.0
 11
162.8387788558557
 21
-121.2522761823961
 31
0.0
  0
LINE
  5
3CC
330
1F
100
AcDbEntity
  8
0
 62
     7
100
AcDbLine
 10
150.8387788558557
 20
-123.2522761823962
 30
0.0
 11
152.8387788558557
 21
-123.2522761823961
 31
0.0
  0
LINE
  5
3CD
330
1F
100
AcDbEntity
  8
0
 62
     7
100
AcDbLine
 10
129.8387788558557
 20
-125.2522761823962
 30
0.0
 11
130.3387788558557
 21
-124.7522761823265
 31
0.0
  0
LINE
  5
3CE
330
1F
100
AcDbEntity
  8
0
 62
     7
100
AcDbLine
 10
129.8387788558557
 20
-165.2522761823962
 30
0.0
 11
130.3387788558557
 21
-165.7522761824268
 31
0.0
  0
LINE
  5
3CF
330
1F
100
AcDbEntity
  8
0
 62
     7
100
AcDbLine
 10
150.8387788558558
 20
-167.2522761823961
 30
0.0
 11
151.8387788558557
 21
-167.2522761823961
 31
0.0
  0
ARC
  5
3D0
330
1F
100
AcDbEntity
  8
0
 62
     7
100
AcDbCircle
 10
156.8387788558557
 20
-123.2522761823961
 30
0.0
 40
2.0
100
AcDbArc
 50
90.0
 51
143.1301023541566
  0
ARC
  5
3D1
330
1F
100
AcDbEntity
  8
0
 62
     7
100
AcDbCircle
 10
162.8387788558557
 20
-123.2522761823961
 30
0.0
 40
2.0
100
AcDbArc
 50
0.0
 51
90.0
  0
ARC
  5
3D2
330
1F
100
AcDbEntity
  8
0
 62
     7
100
AcDbCircle
 10
151.8387788558557
 20
-170.2522761823961
 30
0.0
 40
3.0
100
AcDbArc
 50
0.0
 51
90.0
  0
ARC
  5
3D3
330
1F
100
AcDbEntity
  8
0
 62
     7
100
AcDbCircle
 10
152.8387788558557
 20
-120.2522761823961
 30
0.0
 40
3.0
100
AcDbArc
 50
270.0
 51
323.1301023541555
  0
LINE
  5
3D4
330
1F
100
AcDbEntity
  8
0
 62
     7
100
AcDbLine
 10
173.8387788558557
 20
-333.7522761823962
 30
0.0
 11
173.8387788558557
 21
-356.7522761823962
 31
0.0
  0
LINE
  5
3D5
330
1F
100
AcDbEntity
  8
0
 62
     7
100
AcDbLine
 10
156.8387788558557
 20
-356.7522761823962
 30
0.0
 11
173.8387788558557
 21
-356.7522761823962
 31
0.0
  0
LINE
  5
3D6
330
1F
100
AcDbEntity
  8
0
 62
     7
100
AcDbLine
 10
166.8387788558557
 20
-333.7522761823962
 30
0.0
 11
173.8387788558557
 21
-333.7522761823962
 31
0.0
  0
ARC
  5
3D7
330
1F
100
AcDbEntity
  8
0
 62
     7
100
AcDbCircle
 10
156.8387788558557
 20
-354.7522761823962
 30
0.0
 40
2.0
100
AcDbArc
 50
180.0
 51
270.0
  0
ARC
  5
3D8
330
1F
100
AcDbEntity
  8
0
 62
     7
100
AcDbCircle
 10
166.8387788558557
 20
-331.7522761823962
 30
0.0
 40
2.0
100
AcDbArc
 50
180.0
 51
270.0
  0
ARC
  5
3D9
330
1F
100
AcDbEntity
  8
0
 62
     7
100
AcDbCircle
 10
167.8387788558557
 20
-335.7715354839883
 30
0.0
 40
3.0
100
AcDbArc
 50
180.0
 51
270.0
  0
LINE
  5
3DA
330
1F
100
AcDbEntity
  8
0
 62
     7
100
AcDbLine
 10
437.4792784098252
 20
-208.2522761823963
 30
0.0
 11
437.4792784098252
 21
-226.2522761823963
 31
0.0
  0
LINE
  5
3DB
330
1F
100
AcDbEntity
  8
0
 62
     7
100
AcDbLine
 10
599.4792784098252
 20
-204.7522761823963
 30
0.0
 11
599.4792784098252
 21
-229.7522761823963
 31
0.0
  0
LINE
  5
3DC
330
1F
100
AcDbEntity
  8
0
 62
     7
100
AcDbLine
 10
592.4792784098252
 20
-204.7522761823963
 30
0.0
 11
592.4792784098252
 21
-229.7522761823963
 31
0.0
  0
LINE
  5
3DD
330
1F
100
AcDbEntity
  8
0
 62
     7
100
AcDbLine
 10
582.4792784098252
 20
-204.7522761823963
 30
0.0
 11
582.4792784098252
 21
-229.7522761823963
 31
0.0
  0
LINE
  5
3DE
330
1F
100
AcDbEntity
  8
0
 62
     7
100
AcDbLine
 10
437.4792784098252
 20
-208.2522761823963
 30
0.0
 11
440.9792784098252
 21
-207.0856095157296
 31
0.0
  0
ARC
  5
3DF
330
1F
100
AcDbEntity
  8
0
 62
     7
100
AcDbCircle
 10
561.4167784098252
 20
-217.2522761823963
 30
0.0
 40
40.06250000000011
100
AcDbArc
 50
341.8194461583554
 51
18.18055384164461
  0
ARC
  5
3E0
330
1F
100
AcDbEntity
  8
0
 62
     7
100
AcDbCircle
 10
587.4792784098252
 20
-204.7522761823963
 30
0.0
 40
5.0
100
AcDbArc
 50
180.0
 51
360.0
  0
LINE
  5
3E1
330
1F
100
AcDbEntity
  8
0
 62
     7
100
AcDbLine
 10
573.9792784098252
 20
-204.7522761823963
 30
0.0
 11
582.4792784098252
 21
-204.7522761823963
 31
0.0
  0
LINE
  5
3E2
330
1F
100
AcDbEntity
  8
0
 62
     7
100
AcDbLine
 10
592.4792784098252
 20
-204.7522761823963
 30
0.0
 11
599.4792784098252
 21
-204.7522761823963
 31
0.0
  0
LINE
  5
3E3
330
1F
100
AcDbEntity
  8
0
 62
     7
100
AcDbLine
 10
437.4792784098252
 20
-226.2522761823963
 30
0.0
 11
440.9792784098253
 21
-227.4189428490629
 31
0.0
  0
ARC
  5
3E4
330
1F
100
AcDbEntity
  8
0
 62
     7
100
AcDbCircle
 10
587.4792784098252
 20
-229.7522761823963
 30
0.0
 40
5.0
100
AcDbArc
 50
0.0
 51
180.0
  0
LINE
  5
3E5
330
1F
100
AcDbEntity
  8
0
 62
     7
100
AcDbLine
 10
574.189078952076
 20
-229.7522761823963
 30
0.0
 11
582.4792784098252
 21
-229.7522761823963
 31
0.0
  0
LINE
  5
3E6
330
1F
100
AcDbEntity
  8
0
 62
     7
100
AcDbLine
 10
592.4792784098252
 20
-229.7522761823963
 30
0.0
 11
599.4792784098252
 21
-229.7522761823963
 31
0.0
  0
LINE
  5
3E7
330
1F
100
AcDbEntity
  8
0
 62
     7
100
AcDbLine
 10
216.8387788558555
 20
-331.2522761823964
 30
0.0
 11
189.213934813496
 21
-332.6335183845145
 31
0.0
  0
LINE
  5
3E8
330
1F
100
AcDbEntity
  8
0
 62
     7
100
AcDbLine
 10
189.213934813496
 20
-357.871033980278
 30
0.0
 11
216.8387788558557
 21
-359.252276182396
 31
0.0
  0
ARC
  5
3E9
330
1F
100
AcDbEntity
  8
0
 62
     7
100
AcDbCircle
 10
279.7386674971431
 20
-335.2522761823964
 30
0.0
 40
4.0
100
AcDbArc
 50
12.55585779858589
 51
90.0
  0
ARC
  5
3EA
330
1F
100
AcDbEntity
  8
0
 62
     7
100
AcDbCircle
 10
279.7386674971431
 20
-355.252276182396
 30
0.0
 40
4.0
100
AcDbArc
 50
269.9999999999992
 51
347.4441422014141
  0
ARC
  5
3EB
330
1F
100
AcDbEntity
  8
0
 62
     7
100
AcDbCircle
 10
234.8387788558558
 20
-345.2522761823961
 30
0.0
 40
49.99999999999997
100
AcDbArc
 50
347.4441422014143
 51
12.55585779858581
  0
LINE
  5
3EC
330
1F
100
AcDbEntity
  8
0
 62
     7
100
AcDbLine
 10
173.8387788558557
 20
-338.7715354839884
 30
0.0
 11
183.8387788558557
 21
-338.7715354839884
 31
0.0
  0
LINE
  5
3ED
330
1F
100
AcDbEntity
  8
0
 62
     7
100
AcDbLine
 10
173.8387788558557
 20
-351.733016880804
 30
0.0
 11
183.8387788558557
 21
-351.733016880804
 31
0.0
  0
LINE
  5
3EE
330
1F
100
AcDbEntity
  8
0
 62
     7
100
AcDbLine
 10
186.8387788558557
 20
-355.3741531330833
 30
0.0
 11
186.8387788558557
 21
-335.130399231709
 31
0.0
  0
LINE
  5
3EF
330
1F
100
AcDbEntity
  8
0
 62
     7
100
AcDbLine
 10
174.3387788558557
 20
-356.7522761823961
 30
0.0
 11
174.3387788558557
 21
-351.733016880804
 31
0.0
  0
LINE
  5
3F0
330
1F
100
AcDbEntity
  8
0
 62
     7
100
AcDbLine
 10
174.3387788558557
 20
-356.7522761823961
 30
0.0
 11
186.3387788558557
 21
-356.7522761823961
 31
0.0
  0
LINE
  5
3F1
330
1F
100
AcDbEntity
  8
0
 62
     7
100
AcDbLine
 10
174.3387788558557
 20
-333.7522761823961
 30
0.0
 11
186.3387788558557
 21
-333.7522761823961
 31
0.0
  0
LINE
  5
3F2
330
1F
100
AcDbEntity
  8
0
 62
     7
100
AcDbLine
 10
173.8387788558557
 20
-356.2522761823961
 30
0.0
 11
174.3387788558557
 21
-356.7522761823961
 31
0.0
  0
LINE
  5
3F3
330
1F
100
AcDbEntity
  8
0
 62
     7
100
AcDbLine
 10
186.3387788558557
 20
-356.7522761823961
 30
0.0
 11
186.8387788558557
 21
-356.2522761823961
 31
0.0
  0
LINE
  5
3F4
330
1F
100
AcDbEntity
  8
0
 62
     7
100
AcDbLine
 10
186.3387788558557
 20
-333.7522761823961
 30
0.0
 11
186.8387788558557
 21
-334.2522761823961
 31
0.0
  0
LINE
  5
3F5
330
1F
100
AcDbEntity
  8
0
 62
     7
100
AcDbLine
 10
174.3387788558557
 20
-333.7522761823961
 30
0.0
 11
173.8387788558557
 21
-334.2522761823961
 31
0.0
  0
LINE
  5
3F6
330
1F
100
AcDbEntity
  8
0
 62
     7
100
AcDbLine
 10
279.7386674971431
 20
-359.252276182396
 30
0.0
 11
216.8387788558557
 21
-359.252276182396
 31
0.0
  0
LINE
  5
3F7
330
1F
100
AcDbEntity
  8
0
 62
     7
100
AcDbLine
 10
279.7386674971431
 20
-331.2522761823964
 30
0.0
 11
216.8387788558555
 21
-331.2522761823964
 31
0.0
  0
LINE
  5
3F8
330
1F
100
AcDbEntity
  8
0
 62
     7
100
AcDbLine
 10
174.3387788558557
 20
-333.7522761823961
 30
0.0
 11
174.3387788558557
 21
-338.7715354839884
 31
0.0
  0
LINE
  5
3F9
330
1F
100
AcDbEntity
  8
0
 62
     7
100
AcDbLine
 10
186.3387788558557
 20
-333.7522761823961
 30
0.0
 11
186.3387788558557
 21
-356.7522761823961
 31
0.0
  0
ARC
  5
3FA
330
1F
100
AcDbEntity
  8
0
 62
     7
100
AcDbCircle
 10
189.3387788558557
 20
-335.130399231709
 30
0.0
 40
2.5
100
AcDbArc
 50
92.86240522611196
 51
180.0
  0
ARC
  5
3FB
330
1F
100
AcDbEntity
  8
0
 62
     7
100
AcDbCircle
 10
189.3387788558557
 20
-355.3741531330833
 30
0.0
 40
2.5
100
AcDbArc
 50
180.0
 51
267.1375947738881
  0
LINE
  5
3FC
330
1F
100
AcDbEntity
  8
0
 62
     7
100
AcDbLine
 10
183.8387788558557
 20
-351.733016880804
 30
0.0
 11
183.8387788558557
 21
-338.7715354839884
 31
0.0
  0
LINE
  5
3FD
330
1F
100
AcDbEntity
  8
0
 62
     7
100
AcDbLine
 10
216.8387788558555
 20
-331.2522761823964
 30
0.0
 11
216.8387788558555
 21
-359.252276182396
 31
0.0
  0
LINE
  5
3FE
330
1F
100
AcDbEntity
  8
0
 62
     7
100
AcDbLine
 10
150.8387788558557
 20
-123.2522761823962
 30
0.0
 11
150.8387788558557
 21
-124.7522761823901
 31
0.0
  0
LINE
  5
3FF
330
1F
100
AcDbEntity
  8
0
 62
     7
100
AcDbLine
 10
150.8387788558558
 20
-165.7522761823993
 30
0.0
 11
150.8387788558558
 21
-167.2522761823961
 31
0.0
  0
LINE
  5
400
330
1F
100
AcDbEntity
  8
0
 62
     7
100
AcDbLine
 10
154.8387788558557
 20
-170.2522761823961
 30
0.0
 11
154.8387788558557
 21
-354.7522761823962
 31
0.0
  0
LINE
  5
401
330
1F
100
AcDbEntity
  8
0
 62
     7
100
AcDbLine
 10
164.8387788558557
 20
-123.2522761823961
 30
0.0
 11
164.8387788558557
 21
-134.2522761823962
 31
0.0
  0
LINE
  5
402
330
1F
100
AcDbEntity
  8
0
 62
     7
100
AcDbLine
 10
164.8387788558557
 20
-156.2522761823962
 30
0.0
 11
164.8387788558557
 21
-335.7715354839883
 31
0.0
  0
LINE
  5
403
330
1F
100
AcDbEntity
  8
0
 62
     7
100
AcDbLine
 10
129.8387788558557
 20
-125.2522761823962
 30
0.0
 11
129.8387788558557
 21
-134.2522761823962
 31
0.0
  0
LINE
  5
404
330
1F
100
AcDbEntity
  8
0
 62
     7
100
AcDbLine
 10
129.8387788558557
 20
-156.2522761823963
 30
0.0
 11
129.8387788558557
 21
-165.2522761823962
 31
0.0
  0
LINE
  5
405
330
1F
100
AcDbEntity
  8
0
 62
     7
100
AcDbLine
 10
445.2029438001784
 20
430.7482158786798
 30
0.0
 11
445.2029438001784
 21
400.7482158786798
 31
0.0
  0
LINE
  5
406
330
1F
100
AcDbEntity
  8
0
 62
     7
100
AcDbLine
 10
530.2029438001785
 20
430.7482158786798
 30
0.0
 11
530.2029438001785
 21
400.7482158786798
 31
0.0
  0
LINE
  5
407
330
1F
100
AcDbEntity
  8
0
 62
     7
100
AcDbLine
 10
445.2029438001784
 20
430.7482158786798
 30
0.0
 11
530.2029438001785
 21
430.7482158786798
 31
0.0
  0
LINE
  5
408
330
1F
100
AcDbEntity
  8
0
 62
     7
100
AcDbLine
 10
445.2029438001784
 20
400.7482158786798
 30
0.0
 11
530.2029438001785
 21
400.7482158786798
 31
0.0
  0
LINE
  5
409
330
1F
100
AcDbEntity
  8
0
 62
     7
100
AcDbLine
 10
534.2029438001785
 20
404.7482158786798
 30
0.0
 11
627.6048675888249
 21
404.7482158786798
 31
0.0
  0
LINE
  5
40A
330
1F
100
AcDbEntity
  8
0
 62
     7
100
AcDbLine
 10
534.2029438001785
 20
426.7482158786798
 30
0.0
 11
627.6048675888247
 21
426.7482158786798
 31
0.0
  0
LINE
  5
40B
330
1F
100
AcDbEntity
  8
0
 62
     7
100
AcDbLine
 10
530.2029438001785
 20
400.7482158786798
 30
0.0
 11
534.2029438001785
 21
404.7482158786798
 31
0.0
  0
LINE
  5
40C
330
1F
100
AcDbEntity
  8
0
 62
     7
100
AcDbLine
 10
530.2029438001785
 20
430.7482158786798
 30
0.0
 11
534.2029438001785
 21
426.7482158786798
 31
0.0
  0
LINE
  5
40D
330
1F
100
AcDbEntity
  8
0
 62
     7
100
AcDbLine
 10
534.2029438001785
 20
404.7482158786798
 30
0.0
 11
534.2029438001785
 21
426.7482158786798
 31
0.0
  0
LINE
  5
40E
330
1F
100
AcDbEntity
  8
0
 62
     7
100
AcDbLine
 10
655.2029438001785
 20
424.7482158786798
 30
0.0
 11
655.2029438001785
 21
406.7482158786798
 31
0.0
  0
LINE
  5
40F
330
1F
100
AcDbEntity
  8
0
 62
     7
100
AcDbLine
 10
655.2029438001785
 20
406.7482158786798
 30
0.0
 11
653.7029438001785
 21
405.2482158786798
 31
0.0
  0
LINE
  5
410
330
1F
100
AcDbEntity
  8
0
 62
     7
100
AcDbLine
 10
653.7029438001785
 20
426.2482158786798
 30
0.0
 11
655.2029438001785
 21
424.7482158786798
 31
0.0
  0
LINE
  5
411
330
1F
100
AcDbEntity
  8
0
 62
     7
100
AcDbLine
 10
653.7029438001785
 20
421.7393806966027
 30
0.0
 11
653.7029438001785
 21
420.2203612428339
 31
0.0
  0
LINE
  5
412
330
1F
100
AcDbEntity
  8
0
 62
     7
100
AcDbLine
 10
653.7029438001785
 20
409.7570510607569
 30
0.0
 11
653.7029438001785
 21
411.2760705145257
 31
0.0
  0
LINE
  5
413
330
1F
100
AcDbEntity
  8
0
 62
     7
100
AcDbLine
 10
630.2029438001786
 20
426.2482158786798
 30
0.0
 11
653.7029438001785
 21
426.2482158786798
 31
0.0
  0
LINE
  5
414
330
1F
100
AcDbEntity
  8
0
 62
     7
100
AcDbLine
 10
630.2029438001786
 20
405.2482158786798
 30
0.0
 11
653.7029438001785
 21
405.2482158786798
 31
0.0
  0
LINE
  5
415
330
1F
100
AcDbEntity
  8
0
 62
     7
100
AcDbLine
 10
653.7029438001785
 20
409.7570510607569
 30
0.0
 11
630.2029438001786
 21
409.7570510607569
 31
0.0
  0
LINE
  5
416
330
1F
100
AcDbEntity
  8
0
 62
     7
100
AcDbLine
 10
653.7029438001785
 20
411.2760705145257
 30
0.0
 11
630.2029438001786
 21
411.2760705145257
 31
0.0
  0
LINE
  5
417
330
1F
100
AcDbEntity
  8
0
 62
     7
100
AcDbLine
 10
653.7029438001785
 20
420.2203612428339
 30
0.0
 11
630.2029438001786
 21
420.2203612428339
 31
0.0
  0
LINE
  5
418
330
1F
100
AcDbEntity
  8
0
 62
     7
100
AcDbLine
 10
630.2029438001786
 20
421.7393806966028
 30
0.0
 11
653.7029438001785
 21
421.7393806966028
 31
0.0
  0
LINE
  5
419
330
1F
100
AcDbEntity
  8
0
 62
     7
100
AcDbLine
 10
630.2029438001786
 20
426.2482158786798
 30
0.0
 11
630.2029438001786
 21
405.2482158786798
 31
0.0
  0
LINE
  5
41A
330
1F
100
AcDbEntity
  8
0
 62
     7
100
AcDbLine
 10
630.2029438001786
 20
405.2482158786798
 30
0.0
 11
627.6048675888249
 21
404.7482158786798
 31
0.0
  0
LINE
  5
41B
330
1F
100
AcDbEntity
  8
0
 62
     7
100
AcDbLine
 10
627.6048675888249
 20
404.7482158786798
 30
0.0
 11
627.6048675888249
 21
426.7482158786798
 31
0.0
  0
LINE
  5
41C
330
1F
100
AcDbEntity
  8
0
 62
     7
100
AcDbLine
 10
627.6048675888249
 20
426.7482158786798
 30
0.0
 11
630.2029438001786
 21
426.2482158786798
 31
0.0
  0
ARC
  5
41D
330
1F
100
AcDbEntity
  8
0
 62
     7
100
AcDbCircle
 10
651.6617444627864
 20
423.9937982876413
 30
0.0
 40
3.041199337392026
100
AcDbArc
 50
312.1583853430251
 51
47.84161465697491
  0
ARC
  5
41E
330
1F
100
AcDbEntity
  8
0
 62
     7
100
AcDbCircle
 10
644.202901721116
 20
415.7482158786798
 30
0.0
 40
10.50004207906252
100
AcDbArc
 50
334.7912860464572
 51
25.20871395354283
  0
ARC
  5
41F
330
1F
100
AcDbEntity
  8
0
 62
     7
100
AcDbCircle
 10
651.6617444627864
 20
407.5026334697184
 30
0.0
 40
3.041199337392026
100
AcDbArc
 50
312.1583853430251
 51
47.84161465697491
  0
LINE
  5
420
330
1F
100
AcDbEntity
  8
0
 62
     7
100
AcDbLine
 10
405.2552957645821
 20
426.7480912994208
 30
0.0
 11
395.6505962651507
 21
421.2028154579386
 31
0.0
  0
LINE
  5
421
330
1F
100
AcDbEntity
  8
0
 62
     7
100
AcDbLine
 10
395.7029482295544
 20
421.293491720162
 30
0.0
 11
395.7029482295544
 21
410.2029400371976
 31
0.0
  0
LINE
  5
422
330
1F
100
AcDbEntity
  8
0
 62
     7
100
AcDbLine
 10
395.6505962651506
 20
410.2936162994211
 30
0.0
 11
405.2552957645821
 21
404.7483404579388
 31
0.0
  0
LINE
  5
423
330
1F
100
AcDbEntity
  8
0
 62
     7
100
AcDbLine
 10
405.1505918357747
 20
404.7483404579388
 30
0.0
 11
414.7552913352059
 21
410.2936162994208
 31
0.0
  0
LINE
  5
424
330
1F
100
AcDbEntity
  8
0
 62
     7
100
AcDbLine
 10
414.7029393708022
 20
410.2029400371976
 30
0.0
 11
414.7029393708023
 21
421.2934917201619
 31
0.0
  0
LINE
  5
425
330
1F
100
AcDbEntity
  8
0
 62
     7
100
AcDbLine
 10
414.755291335206
 20
421.2028154579386
 30
0.0
 11
405.1505918357747
 21
426.7480912994208
 31
0.0
  0
CIRCLE
  5
426
330
1F
100
AcDbEntity
  8
0
 62
     7
100
AcDbCircle
 10
405.2029438001783
 20
415.7482158786798
 30
0.0
 40
15.0
  0
CIRCLE
  5
427
330
1F
100
AcDbEntity
  8
0
 62
     7
100
AcDbCircle
 10
405.2029438001783
 20
415.7482158786798
 30
0.0
 40
11.0
  0
CIRCLE
  5
428
330
1F
100
AcDbEntity
  8
0
 62
     7
100
AcDbCircle
 10
405.2029438001783
 20
415.7482158786798
 30
0.0
 40
9.5
  0
INSERT
  5
429
330
1F
100
AcDbEntity
  8
0
  6
CONTINUOUS
100
AcDbBlockReference
  2
GROUP_4
 10
0.0
 20
0.0
 30
0.0
  0
INSERT
  5
42A
330
1F
100
AcDbEntity
  8
0
  6
CONTINUOUS
100
AcDbBlockReference
  2
GROUP_5
 10
0.0
 20
0.0
 30
0.0
  0
INSERT
  5
42B
330
1F
100
AcDbEntity
  8
0
  6
CONTINUOUS
100
AcDbBlockReference
  2
GROUP_6
 10
0.0
 20
0.0
 30
0.0
  0
INSERT
  5
42C
330
1F
100
AcDbEntity
  8
0
  6
CONTINUOUS
100
AcDbBlockReference
  2
GROUP_8
 10
0.0
 20
0.0
 30
0.0
  0
LINE
  5
42D
330
1F
100
AcDbEntity
  8
LAYER0002
 62
     7
100
AcDbLine
 10
173.8387788558557
 20
-351.733016880804
 30
0.0
 11
183.8387788558557
 21
-338.7715354839884
 31
0.0
  0
LINE
  5
42E
330
1F
100
AcDbEntity
  8
LAYER0002
 62
     7
100
AcDbLine
 10
173.8387788558557
 20
-338.7715354839884
 30
0.0
 11
183.8387788558558
 21
-351.7330168808039
 31
0.0
  0
INSERT
  5
42F
330
1F
100
AcDbEntity
  8
LAYER0014
  6
CONTINUOUS
100
AcDbBlockReference
  2
DA_IMAGEDIMGROUP_1
 10
0.0
 20
0.0
 30
0.0
  0
INSERT
  5
430
330
1F
100
AcDbEntity
  8
LAYER0014
  6
CONTINUOUS
100
AcDbBlockReference
  2
DA_IMAGEDIMGROUP_2
 10
0.0
 20
0.0
 30
0.0
  0
INSERT
  5
431
330
1F
100
AcDbEntity
  8
LAYER0014
  6
CONTINUOUS
100
AcDbBlockReference
  2
DA_IMAGEDIMGROUP_3
 10
0.0
 20
0.0
 30
0.0
  0
INSERT
  5
432
330
1F
100
AcDbEntity
  8
LAYER0014
  6
CONTINUOUS
100
AcDbBlockReference
  2
DA_IMAGEDIMGROUP_4
 10
0.0
 20
0.0
 30
0.0
  0
INSERT
  5
433
330
1F
100
AcDbEntity
  8
LAYER0014
  6
CONTINUOUS
100
AcDbBlockReference
  2
DA_IMAGEDIMGROUP_5
 10
0.0
 20
0.0
 30
0.0
  0
INSERT
  5
434
330
1F
100
AcDbEntity
  8
LAYER0014
  6
CONTINUOUS
100
AcDbBlockReference
  2
DA_IMAGEDIMGROUP_6
 10
0.0
 20
0.0
 30
0.0
  0
INSERT
  5
435
330
1F
100
AcDbEntity
  8
LAYER0014
  6
CONTINUOUS
100
AcDbBlockReference
  2
DA_IMAGEDIMGROUP_7
 10
0.0
 20
0.0
 30
0.0
  0
INSERT
  5
436
330
1F
100
AcDbEntity
  8
LAYER0014
  6
CONTINUOUS
100
AcDbBlockReference
  2
DA_IMAGEDIMGROUP_8
 10
0.0
 20
0.0
 30
0.0
  0
INSERT
  5
437
330
1F
100
AcDbEntity
  8
LAYER0014
  6
CONTINUOUS
100
AcDbBlockReference
  2
DA_IMAGEDIMGROUP_9
 10
0.0
 20
0.0
 30
0.0
  0
INSERT
  5
438
330
1F
100
AcDbEntity
  8
LAYER0014
  6
CONTINUOUS
100
AcDbBlockReference
  2
DA_IMAGEDIMGROUP_10
 10
0.0
 20
0.0
 30
0.0
  0
INSERT
  5
439
330
1F
100
AcDbEntity
  8
LAYER0014
  6
CONTINUOUS
100
AcDbBlockReference
  2
DA_IMAGEDIMGROUP_11
 10
0.0
 20
0.0
 30
0.0
  0
INSERT
  5
43A
330
1F
100
AcDbEntity
  8
LAYER0014
  6
CONTINUOUS
100
AcDbBlockReference
  2
DA_IMAGEDIMGROUP_12
 10
0.0
 20
0.0
 30
0.0
  0
INSERT
  5
43B
330
1F
100
AcDbEntity
  8
LAYER0014
  6
CONTINUOUS
100
AcDbBlockReference
  2
DA_IMAGEDIMGROUP_13
 10
0.0
 20
0.0
 30
0.0
  0
INSERT
  5
43C
330
1F
100
AcDbEntity
  8
LAYER0014
  6
CONTINUOUS
100
AcDbBlockReference
  2
DA_IMAGEDIMGROUP_14
 10
0.0
 20
0.0
 30
0.0
  0
INSERT
  5
43D
330
1F
100
AcDbEntity
  8
LAYER0014
  6
CONTINUOUS
100
AcDbBlockReference
  2
DA_IMAGEDIMGROUP_15
 10
0.0
 20
0.0
 30
0.0
  0
INSERT
  5
43E
330
1F
100
AcDbEntity
  8
LAYER0014
  6
CONTINUOUS
100
AcDbBlockReference
  2
DA_IMAGEDIMGROUP_16
 10
0.0
 20
0.0
 30
0.0
  0
INSERT
  5
43F
330
1F
100
AcDbEntity
  8
LAYER0014
  6
CONTINUOUS
100
AcDbBlockReference
  2
DA_IMAGEDIMGROUP_17
 10
0.0
 20
0.0
 30
0.0
  0
INSERT
  5
440
330
1F
100
AcDbEntity
  8
LAYER0014
  6
CONTINUOUS
100
AcDbBlockReference
  2
DA_IMAGEDIMGROUP_18
 10
0.0
 20
0.0
 30
0.0
  0
INSERT
  5
441
330
1F
100
AcDbEntity
  8
LAYER0014
  6
CONTINUOUS
100
AcDbBlockReference
  2
DA_IMAGEDIMGROUP_19
 10
0.0
 20
0.0
 30
0.0
  0
INSERT
  5
442
330
1F
100
AcDbEntity
  8
LAYER0014
  6
CONTINUOUS
100
AcDbBlockReference
  2
DA_IMAGEDIMGROUP_20
 10
0.0
 20
0.0
 30
0.0
  0
INSERT
  5
443
330
1F
100
AcDbEntity
  8
LAYER0014
  6
CONTINUOUS
100
AcDbBlockReference
  2
DA_IMAGEDIMGROUP_21
 10
0.0
 20
0.0
 30
0.0
  0
INSERT
  5
444
330
1F
100
AcDbEntity
  8
LAYER0014
  6
CONTINUOUS
100
AcDbBlockReference
  2
DA_IMAGEDIMGROUP_22
 10
0.0
 20
0.0
 30
0.0
  0
INSERT
  5
445
330
1F
100
AcDbEntity
  8
LAYER0014
  6
CONTINUOUS
100
AcDbBlockReference
  2
DA_IMAGEDIMGROUP_23
 10
0.0
 20
0.0
 30
0.0
  0
INSERT
  5
446
330
1F
100
AcDbEntity
  8
LAYER0014
  6
CONTINUOUS
100
AcDbBlockReference
  2
DA_IMAGEDIMGROUP_24
 10
0.0
 20
0.0
 30
0.0
  0
INSERT
  5
447
330
1F
100
AcDbEntity
  8
LAYER0014
  6
CONTINUOUS
100
AcDbBlockReference
  2
DA_IMAGEDIMGROUP_25
 10
0.0
 20
0.0
 30
0.0
  0
INSERT
  5
448
330
1F
100
AcDbEntity
  8
LAYER0014
  6
CONTINUOUS
100
AcDbBlockReference
  2
DA_IMAGEDIMGROUP_26
 10
0.0
 20
0.0
 30
0.0
  0
INSERT
  5
449
330
1F
100
AcDbEntity
  8
LAYER0014
  6
CONTINUOUS
100
AcDbBlockReference
  2
DA_IMAGEDIMGROUP_27
 10
0.0
 20
0.0
 30
0.0
  0
LINE
  5
44A
330
1F
100
AcDbEntity
  8
0
  6
DASHED2
 62
     5
100
AcDbLine
 10
445.2029438001784
 20
426.7480912994208
 30
0.0
 11
480.2029438001784
 21
426.7480912994208
 31
0.0
  0
LINE
  5
44B
330
1F
100
AcDbEntity
  8
0
  6
DASHED2
 62
     5
100
AcDbLine
 10
445.2029438001784
 20
404.7483404579388
 30
0.0
 11
480.2029438001784
 21
404.7483404579388
 31
0.0
  0
LINE
  5
44C
330
1F
100
AcDbEntity
  8
0
  6
DASHED2
 62
     5
100
AcDbLine
 10
465.2029438001784
 20
426.7480912994208
 30
0.0
 11
465.2029438001784
 21
404.7483404579388
 31
0.0
  0
LINE
  5
44D
330
1F
100
AcDbEntity
  8
0
  6
DASHED2
 62
     5
100
AcDbLine
 10
465.2029438001784
 20
421.2028154579386
 30
0.0
 11
480.2029438001784
 21
421.2028154579386
 31
0.0
  0
LINE
  5
44E
330
1F
100
AcDbEntity
  8
0
  6
DASHED2
 62
     5
100
AcDbLine
 10
465.2029438001784
 20
410.2936162994209
 30
0.0
 11
480.2029438001784
 21
410.2936162994209
 31
0.0
  0
LINE
  5
44F
330
1F
100
AcDbEntity
  8
0
  6
DASHED2
 62
     5
100
AcDbLine
 10
480.2029438001784
 20
404.2482158786798
 30
0.0
 11
480.2029438001784
 21
427.2482158786798
 31
0.0
  0
LINE
  5
450
330
1F
100
AcDbEntity
  8
0
  6
DASHED2
 62
     5
100
AcDbLine
 10
495.2029438001784
 20
425.2482158786798
 30
0.0
 11
520.2029438001785
 21
425.2482158786798
 31
0.0
  0
LINE
  5
451
330
1F
100
AcDbEntity
  8
0
  6
DASHED2
 62
     5
100
AcDbLine
 10
480.2029438001784
 20
427.2482158786798
 30
0.0
 11
495.2029438001784
 21
427.2482158786798
 31
0.0
  0
LINE
  5
452
330
1F
100
AcDbEntity
  8
0
  6
DASHED2
 62
     5
100
AcDbLine
 10
495.2029438001784
 20
406.2482158786798
 30
0.0
 11
520.2029438001785
 21
406.2482158786798
 31
0.0
  0
LINE
  5
453
330
1F
100
AcDbEntity
  8
0
  6
DASHED2
 62
     5
100
AcDbLine
 10
480.2029438001784
 20
404.2482158786798
 30
0.0
 11
495.2029438001784
 21
404.2482158786798
 31
0.0
  0
LINE
  5
454
330
1F
100
AcDbEntity
  8
0
  6
DASHED2
 62
     5
100
AcDbLine
 10
495.2029438001784
 20
404.2482158786798
 30
0.0
 11
495.2029438001784
 21
427.2482158786798
 31
0.0
  0
LINE
  5
455
330
1F
100
AcDbEntity
  8
0
  6
DASHED2
 62
     5
100
AcDbLine
 10
520.2029438001785
 20
425.2482158786798
 30
0.0
 11
520.2029438001785
 21
406.2482158786798
 31
0.0
  0
LINE
  5
456
330
1F
100
AcDbEntity
  8
0
  6
DASHED2
 62
     5
100
AcDbLine
 10
520.2029438001785
 20
406.2482158786798
 30
0.0
 11
525.6877713574799
 21
415.7482158786798
 31
0.0
  0
LINE
  5
457
330
1F
100
AcDbEntity
  8
0
  6
DASHED2
 62
     5
100
AcDbLine
 10
520.2029438001785
 20
425.2482158786798
 30
0.0
 11
525.6877713574799
 21
415.7482158786798
 31
0.0
  0
INSERT
  5
458
330
1F
100
AcDbEntity
  8
LAYER0013
  6
CONTINUOUS
100
AcDbBlockReference
  2
GROUP_9
 10
0.0
 20
0.0
 30
0.0
  0
INSERT
  5
459
330
1F
100
AcDbEntity
  8
ZUWAKU
  6
CONTINUOUS
100
AcDbBlockReference
  2
GROUP_10
 10
0.0
 20
0.0
 30
0.0
  0
LINE
  5
45A
330
1F
100
AcDbEntity
  8
0
 62
     4
100
AcDbLine
 10
373.75
 20
281.25
 30
0.0
 11
693.75
 21
281.25
 31
0.0
  0
LINE
  5
45B
330
1F
100
AcDbEntity
  8
0
 62
     4
100
AcDbLine
 10
373.75
 20
481.2500000000001
 30
0.0
 11
373.75
 21
281.25
 31
0.0
  0
LINE
  5
45C
330
1F
100
AcDbEntity
  8
0
  6
DIVIDE
 62
     4
100
AcDbLine
 10
144.77028163069
 20
-190.7161817214652
 30
0.0
 11
175.3870431131269
 21
-182.5681726172683
 31
0.0
  0
VIEWPORT
  5
30
330
1B
100
AcDbEntity
 67
     1
  8
0
100
AcDbViewport
 10
0.0
 20
0.0
 30
0.0
 40
4162.5
 41
2887.5
 68
     1
 69
     1
1001
ACAD
1000
MVIEW
1002
{
1070
    16
1010
0.0
1020
0.0
1030
0.0
1010
0.0
1020
0.0
1030
1.0
1040
0.0
1040
2887.5
1040
0.0
1040
0.0
1040
50.0
1040
0.0
1040
0.0
1070
     0
1070
   100
1070
     0
1070
     1
1070
     0
1070
     0
1070
     0
1070
     0
1040
0.0
1040
0.0
1040
0.0
1040
1.0
1040
1.0
1040
0.0
1040
0.0
1070
     0
1002
{
1002
}
1002
}
  0
ENDSEC
  0
SECTION
  2
OBJECTS
  0
DICTIONARY
  5
C
330
0
100
AcDbDictionary
  3
ACAD_GROUP
350
D
  3
ACAD_LAYOUT
350
1A
  3
ACAD_MLINESTYLE
350
17
  3
ACAD_PLOTSETTINGS
350
19
  3
ACDBHEADERROUNDTRIPXREC
350
45D
  0
DICTIONARY
  5
47D
330
29
100
AcDbDictionary
280
     1
  3
ACAD_XREC_ROUNDTRIP
360
47E
  0
DICTIONARY
  5
D
102
{ACAD_REACTORS
330
C
102
}
330
C
100
AcDbDictionary
  0
DICTIONARY
  5
1A
102
{ACAD_REACTORS
330
C
102
}
330
C
100
AcDbDictionary
  0
DICTIONARY
  5
17
102
{ACAD_REACTORS
330
C
102
}
330
C
100
AcDbDictionary
  3
STANDARD
350
18
  0
DICTIONARY
  5
19
102
{ACAD_REACTORS
330
C
102
}
330
C
100
AcDbDictionary
  0
DICTIONARY
  5
45D
102
{ACAD_REACTORS
330
C
102
}
330
C
100
AcDbDictionary
  3
CEPSNTYPE
350
466
  3
DIMSTYLEDATA
350
47C
  3
FINGERPRINTGUID
350
467
  3
HYPERLINKBASE
350
460
  3
INSUNITS
350
465
  3
LAYOUTDICT
350
462
  3
LWETCUNION
350
464
  3
PLOTSETDICT
350
463
  3
PSVPSCALE
350
469
  3
PUCSBASE
350
46C
  3
PUCSORGBACK
350
472
  3
PUCSORGBOTTOM
350
46E
  3
PUCSORGFRONT
350
471
  3
PUCSORGLEFT
350
46F
  3
PUCSORGRIGHT
350
470
  3
PUCSORGTOP
350
46D
  3
PUCSORTHOREF
350
46A
  3
PUCSORTHOVIEW
350
46B
  3
STYLESHEET
350
461
  3
TSTACKALIGN
350
45E
  3
TSTACKSIZE
350
45F
  3
UCSBASE
350
475
  3
UCSORGBACK
350
47B
  3
UCSORGBOTTOM
350
477
  3
UCSORGFRONT
350
47A
  3
UCSORGLEFT
350
478
  3
UCSORGRIGHT
350
479
  3
UCSORGTOP
350
476
  3
UCSORTHOREF
350
473
  3
UCSORTHOVIEW
350
474
  3
VERSIONGUID
350
468
  0
XRECORD
  5
47E
102
{ACAD_REACTORS
330
47D
102
}
330
47D
100
AcDbXrecord
102
UCS
 74
     0
 71
     1
 10
0.0
 20
0.0
 30
0.0
 10
1.0
 20
0.0
 30
0.0
 10
0.0
 20
1.0
 30
0.0
146
0.0
 79
     0
102
VIEW
281
     0
  0
MLINESTYLE
  5
18
102
{ACAD_REACTORS
330
17
102
}
330
17
100
AcDbMlineStyle
  2
Standard
 70
     0
  3

 62
   256
 51
90.0
 52
90.0
 71
     2
 49
0.5
 62
   256
  6
BYLAYER
 49
-0.5
 62
   256
  6
BYLAYER
  0
XRECORD
  5
466
102
{ACAD_REACTORS
330
45D
102
}
330
45D
100
AcDbXrecord
 90
        0
  0
XRECORD
  5
47C
102
{ACAD_REACTORS
330
45D
102
}
330
45D
100
AcDbXrecord
1000
DSTYLE
1002
{
1070
   171
 70
     2
1070
   143
 40
25.4
1070
   274
 70
     2
1070
    41
 40
0.18
1070
   141
 40
0.09
1070
   271
 70
     4
1070
    43
 40
0.38
1070
    44
 40
0.18
1070
   278
 70
    46
1070
    42
 40
0.0625
1070
   147
 40
0.09
1070
    77
 70
     3
1070
   272
 70
     4
1070
    73
 70
     1
1070
   172
 70
     0
1070
    74
 70
     1
1070
   283
 70
     1
1070
   340
340
11
1070
   140
 40
0.18
1070
   284
 70
     0
1070
    78
 70
     0
1002
}
  0
XRECORD
  5
467
102
{ACAD_REACTORS
330
45D
102
}
330
45D
100
AcDbXrecord
  1
{FAEB1C30-E019-11D5-929B-00C0DF256EC4}
  0
XRECORD
  5
460
102
{ACAD_REACTORS
330
45D
102
}
330
45D
100
AcDbXrecord
  1

  0
XRECORD
  5
465
102
{ACAD_REACTORS
330
45D
102
}
330
45D
100
AcDbXrecord
 90
        4
  0
XRECORD
  5
462
102
{ACAD_REACTORS
330
45D
102
}
330
45D
100
AcDbXrecord
340
1A
  0
XRECORD
  5
464
102
{ACAD_REACTORS
330
45D
102
}
330
45D
100
AcDbXrecord
 90
    10752
  0
XRECORD
  5
463
102
{ACAD_REACTORS
330
45D
102
}
330
45D
100
AcDbXrecord
340
19
  0
XRECORD
  5
469
102
{ACAD_REACTORS
330
45D
102
}
330
45D
100
AcDbXrecord
 40
0.0
  0
XRECORD
  5
46C
102
{ACAD_REACTORS
330
45D
102
}
330
45D
100
AcDbXrecord
340
0
  0
XRECORD
  5
472
102
{ACAD_REACTORS
330
45D
102
}
330
45D
100
AcDbXrecord
 10
0.0
 20
0.0
 30
0.0
  0
XRECORD
  5
46E
102
{ACAD_REACTORS
330
45D
102
}
330
45D
100
AcDbXrecord
 10
0.0
 20
0.0
 30
0.0
  0
XRECORD
  5
471
102
{ACAD_REACTORS
330
45D
102
}
330
45D
100
AcDbXrecord
 10
0.0
 20
0.0
 30
0.0
  0
XRECORD
  5
46F
102
{ACAD_REACTORS
330
45D
102
}
330
45D
100
AcDbXrecord
 10
0.0
 20
0.0
 30
0.0
  0
XRECORD
  5
470
102
{ACAD_REACTORS
330
45D
102
}
330
45D
100
AcDbXrecord
 10
0.0
 20
0.0
 30
0.0
  0
XRECORD
  5
46D
102
{ACAD_REACTORS
330
45D
102
}
330
45D
100
AcDbXrecord
 10
0.0
 20
0.0
 30
0.0
  0
XRECORD
  5
46A
102
{ACAD_REACTORS
330
45D
102
}
330
45D
100
AcDbXrecord
340
0
  0
XRECORD
  5
46B
102
{ACAD_REACTORS
330
45D
102
}
330
45D
100
AcDbXrecord
 70
     0
  0
XRECORD
  5
461
102
{ACAD_REACTORS
330
45D
102
}
330
45D
100
AcDbXrecord
  1

  0
XRECORD
  5
45E
102
{ACAD_REACTORS
330
45D
102
}
330
45D
100
AcDbXrecord
 90
        1
  0
XRECORD
  5
45F
102
{ACAD_REACTORS
330
45D
102
}
330
45D
100
AcDbXrecord
 90
       70
  0
XRECORD
  5
475
102
{ACAD_REACTORS
330
45D
102
}
330
45D
100
AcDbXrecord
340
0
  0
XRECORD
  5
47B
102
{ACAD_REACTORS
330
45D
102
}
330
45D
100
AcDbXrecord
 10
0.0
 20
0.0
 30
0.0
  0
XRECORD
  5
477
102
{ACAD_REACTORS
330
45D
102
}
330
45D
100
AcDbXrecord
 10
0.0
 20
0.0
 30
0.0
  0
XRECORD
  5
47A
102
{ACAD_REACTORS
330
45D
102
}
330
45D
100
AcDbXrecord
 10
0.0
 20
0.0
 30
0.0
  0
XRECORD
  5
478
102
{ACAD_REACTORS
330
45D
102
}
330
45D
100
AcDbXrecord
 10
0.0
 20
0.0
 30
0.0
  0
XRECORD
  5
479
102
{ACAD_REACTORS
330
45D
102
}
330
45D
100
AcDbXrecord
 10
0.0
 20
0.0
 30
0.0
  0
XRECORD
  5
476
102
{ACAD_REACTORS
330
45D
102
}
330
45D
100
AcDbXrecord
 10
0.0
 20
0.0
 30
0.0
  0
XRECORD
  5
473
102
{ACAD_REACTORS
330
45D
102
}
330
45D
100
AcDbXrecord
340
0
  0
XRECORD
  5
474
102
{ACAD_REACTORS
330
45D
102
}
330
45D
100
AcDbXrecord
 70
     0
  0
XRECORD
  5
468
102
{ACAD_REACTORS
330
45D
102
}
330
45D
100
AcDbXrecord
  1
{FAEB1C32-E019-11D5-929B-00C0DF256EC4}
  0
ENDSEC
  0
EOF
