  0
SECTION
  2
HEADER
  9
$ACADVER
  1
AC1014
  9
$ACADMAINTVER
 70
     9
  9
$DWGCODEPAGE
  3
ANSI_932
  9
$INSBASE
 10
0.0
 20
0.0
 30
0.0
  9
$EXTMIN
 10
-3242.50802854594
 20
-2002.801516503122
 30
0.0
  9
$EXTMAX
 10
2870.00401427297
 20
1867.650758251561
 30
0.0
  9
$LIMMIN
 10
-835.5
 20
-610.5
  9
$LIMMAX
 10
835.5
 20
610.5
  9
$ORTHOMODE
 70
     0
  9
$REGENMODE
 70
     0
  9
$FILLMODE
 70
     1
  9
$QTEXTMODE
 70
     0
  9
$MIRRTEXT
 70
     1
  9
$DRAGMODE
 70
     2
  9
$LTSCALE
 40
3.0
  9
$OSMODE
 70
    37
  9
$ATTMODE
 70
     1
  9
$TEXTSIZE
 40
0.2
  9
$TRACEWID
 40
0.05
  9
$TEXTSTYLE
  7
STANDARD
  9
$CLAYER
  8
0
  9
$CELTYPE
  6
BYLAYER
  9
$CECOLOR
 62
   256
  9
$CELTSCALE
 40
1.0
  9
$DELOBJ
 70
     1
  9
$DISPSILH
 70
     0
  9
$DIMSCALE
 40
1.0
  9
$DIMASZ
 40
0.18
  9
$DIMEXO
 40
0.0625
  9
$DIMDLI
 40
0.38
  9
$DIMRND
 40
0.0
  9
$DIMDLE
 40
0.0
  9
$DIMEXE
 40
0.18
  9
$DIMTP
 40
0.0
  9
$DIMTM
 40
0.0
  9
$DIMTXT
 40
0.18
  9
$DIMCEN
 40
0.09
  9
$DIMTSZ
 40
0.0
  9
$DIMTOL
 70
     0
  9
$DIMLIM
 70
     0
  9
$DIMTIH
 70
     1
  9
$DIMTOH
 70
     1
  9
$DIMSE1
 70
     0
  9
$DIMSE2
 70
     0
  9
$DIMTAD
 70
     3
  9
$DIMZIN
 70
     0
  9
$DIMBLK
  1

  9
$DIMASO
 70
     1
  9
$DIMSHO
 70
     1
  9
$DIMPOST
  1

  9
$DIMAPOST
  1

  9
$DIMALT
 70
     0
  9
$DIMALTD
 70
     2
  9
$DIMALTF
 40
25.4
  9
$DIMLFAC
 40
1.0
  9
$DIMTOFL
 70
     0
  9
$DIMTVP
 40
0.0
  9
$DIMTIX
 70
     0
  9
$DIMSOXD
 70
     0
  9
$DIMSAH
 70
     0
  9
$DIMBLK1
  1

  9
$DIMBLK2
  1

  9
$DIMSTYLE
  2
STANDARD
  9
$DIMCLRD
 70
     0
  9
$DIMCLRE
 70
     0
  9
$DIMCLRT
 70
     0
  9
$DIMTFAC
 40
1.0
  9
$DIMGAP
 40
0.09
  9
$DIMJUST
 70
     0
  9
$DIMSD1
 70
     0
  9
$DIMSD2
 70
     0
  9
$DIMTOLJ
 70
     1
  9
$DIMTZIN
 70
     0
  9
$DIMALTZ
 70
     0
  9
$DIMALTTZ
 70
     0
  9
$DIMFIT
 70
     3
  9
$DIMUPT
 70
     0
  9
$DIMUNIT
 70
     2
  9
$DIMDEC
 70
     4
  9
$DIMTDEC
 70
     4
  9
$DIMALTU
 70
     2
  9
$DIMALTTD
 70
     2
  9
$DIMTXSTY
  7
STANDARD
  9
$DIMAUNIT
 70
     0
  9
$LUNITS
 70
     2
  9
$LUPREC
 70
     4
  9
$SKETCHINC
 40
0.1
  9
$FILLETRAD
 40
0.5
  9
$AUNITS
 70
     0
  9
$AUPREC
 70
     0
  9
$MENU
  1
.
  9
$ELEVATION
 40
0.0
  9
$PELEVATION
 40
0.0
  9
$THICKNESS
 40
0.0
  9
$LIMCHECK
 70
     1
  9
$CHAMFERA
 40
0.5
  9
$CHAMFERB
 40
0.5
  9
$CHAMFERC
 40
1.0
  9
$CHAMFERD
 40
0.0
  9
$SKPOLY
 70
     0
  9
$TDCREATE
 40
0.0
  9
$TDUPDATE
 40
2453323.369080775
  9
$TDINDWG
 40
0.0000000116
  9
$TDUSRTIMER
 40
0.0000000116
  9
$USRTIMER
 70
     1
  9
$ANGBASE
 50
0.0
  9
$ANGDIR
 70
     0
  9
$PDMODE
 70
     0
  9
$PDSIZE
 40
1.0
  9
$PLINEWID
 40
0.0
  9
$COORDS
 70
     1
  9
$SPLFRAME
 70
     0
  9
$SPLINETYPE
 70
     6
  9
$SPLINESEGS
 70
     8
  9
$ATTDIA
 70
     0
  9
$ATTREQ
 70
     1
  9
$HANDLING
 70
     1
  9
$HANDSEED
  5
4F3
  9
$SURFTAB1
 70
     6
  9
$SURFTAB2
 70
     6
  9
$SURFTYPE
 70
     6
  9
$SURFU
 70
     6
  9
$SURFV
 70
     6
  9
$UCSNAME
  2

  9
$UCSORG
 10
0.0
 20
0.0
 30
0.0
  9
$UCSXDIR
 10
1.0
 20
0.0
 30
0.0
  9
$UCSYDIR
 10
0.0
 20
1.0
 30
0.0
  9
$PUCSNAME
  2

  9
$PUCSORG
 10
0.0
 20
0.0
 30
0.0
  9
$PUCSXDIR
 10
1.0
 20
0.0
 30
0.0
  9
$PUCSYDIR
 10
0.0
 20
1.0
 30
0.0
  9
$USERI1
 70
     0
  9
$USERI2
 70
     0
  9
$USERI3
 70
     0
  9
$USERI4
 70
     0
  9
$USERI5
 70
     0
  9
$USERR1
 40
0.0
  9
$USERR2
 40
0.0
  9
$USERR3
 40
0.0
  9
$USERR4
 40
0.0
  9
$USERR5
 40
0.0
  9
$WORLDVIEW
 70
     1
  9
$SHADEDGE
 70
     3
  9
$SHADEDIF
 70
    70
  9
$TILEMODE
 70
     1
  9
$MAXACTVP
 70
    64
  9
$PINSBASE
 10
0.0
 20
0.0
 30
0.0
  9
$PLIMCHECK
 70
     1
  9
$PEXTMIN
 10
1.000000000000000E+20
 20
1.000000000000000E+20
 30
1.000000000000000E+20
  9
$PEXTMAX
 10
-1.000000000000000E+20
 20
-1.000000000000000E+20
 30
-1.000000000000000E+20
  9
$PLIMMIN
 10
0.0
 20
0.0
  9
$PLIMMAX
 10
12.0
 20
9.0
  9
$UNITMODE
 70
     0
  9
$VISRETAIN
 70
     0
  9
$PLINEGEN
 70
     1
  9
$PSLTSCALE
 70
     0
  9
$TREEDEPTH
 70
  3020
  9
$PICKSTYLE
 70
     1
  9
$CMLSTYLE
  2
STANDARD
  9
$CMLJUST
 70
     0
  9
$CMLSCALE
 40
1.0
  9
$PROXYGRAPHICS
 70
     0
  9
$MEASUREMENT
 70
     1
  0
ENDSEC
  0
SECTION
  2
CLASSES
  0
CLASS
  1
ACDBDICTIONARYWDFLT
  2
AcDbDictionaryWithDefault
  3
ObjectDBX Classes
 90
        0
280
     0
281
     0
  0
CLASS
  1
XRECORD
  2
AcDbXrecord
  3
AutoCAD 2000
 90
        0
280
     0
281
     0
  0
CLASS
  1
LWPOLYLINE
  2
AcDbPolyline
  3
AutoCAD 2000
 90
        0
280
     0
281
     1
  0
CLASS
  1
HATCH
  2
AcDbHatch
  3
AutoCAD 2000
 90
        0
280
     0
281
     1
  0
CLASS
  1
ACDBPLACEHOLDER
  2
AcDbPlaceHolder
  3
ObjectDBX Classes
 90
        0
280
     0
281
     0
  0
CLASS
  1
LAYOUT
  2
AcDbLayout
  3
ObjectDBX Classes
 90
        0
280
     0
281
     0
  0
ENDSEC
  0
SECTION
  2
TABLES
  0
TABLE
  2
VPORT
  5
8
330
0
100
AcDbSymbolTable
 70
     2
  0
VPORT
  5
29
102
{ACAD_XDICTIONARY
360
4F1
102
}
330
8
100
AcDbSymbolTableRecord
100
AcDbViewportTableRecord
  2
*ACTIVE
 70
     0
 10
0.0
 20
0.0
 11
1.0
 21
1.0
 12
-186.0020071364851
 22
-67.3253791257805
 13
0.0
 23
0.0
 14
0.5
 24
0.5
 15
0.5
 25
0.5
 16
0.0
 26
0.0
 36
1.0
 17
0.0
 27
0.0
 37
0.0
 40
1289.663654759144
 41
1.972972972850329
 42
50.0
 43
0.0
 44
0.0
 50
0.0
 51
0.0
 71
     0
 72
   100
 73
     1
 74
     1
 75
     0
 76
     0
 77
     0
 78
     0
  0
ENDTAB
  0
TABLE
  2
LTYPE
  5
5
330
0
100
AcDbSymbolTable
 70
    28
  0
LTYPE
  5
14
330
5
100
AcDbSymbolTableRecord
100
AcDbLinetypeTableRecord
  2
BYBLOCK
 70
     0
  3

 72
    65
 73
     0
 40
0.0
  0
LTYPE
  5
15
330
5
100
AcDbSymbolTableRecord
100
AcDbLinetypeTableRecord
  2
BYLAYER
 70
     0
  3

 72
    65
 73
     0
 40
0.0
  0
LTYPE
  5
16
330
5
100
AcDbSymbolTableRecord
100
AcDbLinetypeTableRecord
  2
CONTINUOUS
 70
     0
  3
Solid line
 72
    65
 73
     0
 40
0.0
  0
LTYPE
  5
31
330
5
100
AcDbSymbolTableRecord
100
AcDbLinetypeTableRecord
  2
HIDDENX2
 70
     0
  3
CADPAC LINETYPE
 72
    65
 73
     2
 40
9.937555753791305
 49
7.453166815343479
 74
     0
 49
-2.484388938447826
 74
     0
  0
LTYPE
  5
32
330
5
100
AcDbSymbolTableRecord
100
AcDbLinetypeTableRecord
  2
HIDDEN
 70
     0
  3
CADPAC LINETYPE
 72
    65
 73
     2
 40
7.453166815343479
 49
4.968777876895652
 74
     0
 49
-2.484388938447826
 74
     0
  0
LTYPE
  5
33
330
5
100
AcDbSymbolTableRecord
100
AcDbLinetypeTableRecord
  2
HIDDEN2
 70
     0
  3
CADPAC LINETYPE
 72
    65
 73
     2
 40
6.210972346119565
 49
3.726583407671739
 74
     0
 49
-2.484388938447826
 74
     0
  0
LTYPE
  5
34
330
5
100
AcDbSymbolTableRecord
100
AcDbLinetypeTableRecord
  2
DASHED
 70
     0
  3
CADPAC LINETYPE
 72
    65
 73
     2
 40
6.956289027653913
 49
4.968777876895652
 74
     0
 49
-1.987511150758261
 74
     0
  0
LTYPE
  5
35
330
5
100
AcDbSymbolTableRecord
100
AcDbLinetypeTableRecord
  2
DASHED2
 70
     0
  3
CADPAC LINETYPE
 72
    65
 73
     2
 40
4.471900089206088
 49
2.981266726137392
 74
     0
 49
-1.490633363068696
 74
     0
  0
LTYPE
  5
36
330
5
100
AcDbSymbolTableRecord
100
AcDbLinetypeTableRecord
  2
DASHEDX2
 70
     0
  3
CADPAC LINETYPE
 72
    65
 73
     2
 40
11.92506690454953
 49
9.937555753791267
 74
     0
 49
-1.987511150758261
 74
     0
  0
LTYPE
  5
37
330
5
100
AcDbSymbolTableRecord
100
AcDbLinetypeTableRecord
  2
DOTX2
 70
     0
  3
CADPAC LINETYPE
 72
    65
 73
     2
 40
4.347680642283743
 49
0.0
 74
     0
 49
-4.347680642283743
 74
     0
  0
LTYPE
  5
38
330
5
100
AcDbSymbolTableRecord
100
AcDbLinetypeTableRecord
  2
DOT
 70
     0
  3
CADPAC LINETYPE
 72
    65
 73
     2
 40
3.478144513826995
 49
0.0
 74
     0
 49
-3.478144513826995
 74
     0
  0
LTYPE
  5
39
330
5
100
AcDbSymbolTableRecord
100
AcDbLinetypeTableRecord
  2
DOT2
 70
     0
  3
CADPAC LINETYPE
 72
    65
 73
     2
 40
2.608608385370246
 49
0.0
 74
     0
 49
-2.608608385370246
 74
     0
  0
LTYPE
  5
3A
330
5
100
AcDbSymbolTableRecord
100
AcDbLinetypeTableRecord
  2
CENTERX2
 70
     0
  3
CADPAC LINETYPE
 72
    65
 73
     4
 40
14.90633363068696
 49
6.210972346119565
 74
     0
 49
-3.105486173059783
 74
     0
 49
2.484388938447826
 74
     0
 49
-3.105486173059783
 74
     0
  0
LTYPE
  5
3B
330
5
100
AcDbSymbolTableRecord
100
AcDbLinetypeTableRecord
  2
CENTER
 70
     0
  3
CADPAC LINETYPE
 72
    65
 73
     4
 40
11.42818911686
 49
4.968777876895652
 74
     0
 49
-2.484388938447826
 74
     0
 49
1.490633363068696
 74
     0
 49
-2.484388938447826
 74
     0
  0
LTYPE
  5
3C
330
5
100
AcDbSymbolTableRecord
100
AcDbLinetypeTableRecord
  2
CENTER2
 70
     0
  3
CADPAC LINETYPE
 72
    65
 73
     4
 40
7.950044603033044
 49
3.726583407671739
 74
     0
 49
-1.86329170383587
 74
     0
 49
0.4968777876895653
 74
     0
 49
-1.86329170383587
 74
     0
  0
LTYPE
  5
3D
330
5
100
AcDbSymbolTableRecord
100
AcDbLinetypeTableRecord
  2
DASHDOTX2
 70
     0
  3
CADPAC LINETYPE
 72
    65
 73
     4
 40
23.85013380909898
 49
11.92506690454953
 74
     0
 49
-3.975022301516484
 74
     0
 49
3.975022301516484
 74
     0
 49
-3.975022301516484
 74
     0
  0
LTYPE
  5
3E
330
5
100
AcDbSymbolTableRecord
100
AcDbLinetypeTableRecord
  2
DASHDOT
 70
     0
  3
CADPAC LINETYPE
 72
    65
 73
     4
 40
11.92506690454957
 49
5.962533452274784
 74
     0
 49
-1.987511150758261
 74
     0
 49
1.987511150758261
 74
     0
 49
-1.987511150758261
 74
     0
  0
LTYPE
  5
3F
330
5
100
AcDbSymbolTableRecord
100
AcDbLinetypeTableRecord
  2
DASHDOT2
 70
     0
  3
CADPAC LINETYPE
 72
    65
 73
     4
 40
7.651917930419305
 49
4.471900089206088
 74
     0
 49
-1.490633363068696
 74
     0
 49
0.1987511150758261
 74
     0
 49
-1.490633363068696
 74
     0
  0
LTYPE
  5
40
330
5
100
AcDbSymbolTableRecord
100
AcDbLinetypeTableRecord
  2
DIVIDEX2
 70
     0
  3
CADPAC LINETYPE
 72
    65
 73
     6
 40
31.80017841213195
 49
11.92506690454953
 74
     0
 49
-3.975022301516484
 74
     0
 49
3.975022301516484
 74
     0
 49
-3.975022301516484
 74
     0
 49
3.975022301516484
 74
     0
 49
-3.975022301516484
 74
     0
  0
LTYPE
  5
41
330
5
100
AcDbSymbolTableRecord
100
AcDbLinetypeTableRecord
  2
DIVIDE
 70
     0
  3
CADPAC LINETYPE
 72
    65
 73
     6
 40
15.90008920606609
 49
5.962533452274784
 74
     0
 49
-1.987511150758261
 74
     0
 49
1.987511150758261
 74
     0
 49
-1.987511150758261
 74
     0
 49
1.987511150758261
 74
     0
 49
-1.987511150758261
 74
     0
  0
LTYPE
  5
42
330
5
100
AcDbSymbolTableRecord
100
AcDbLinetypeTableRecord
  2
DIVIDE2
 70
     0
  3
CADPAC LINETYPE
 72
    65
 73
     6
 40
11.92506690454957
 49
4.471900089206088
 74
     0
 49
-1.490633363068696
 74
     0
 49
1.490633363068696
 74
     0
 49
-1.490633363068696
 74
     0
 49
1.490633363068696
 74
     0
 49
-1.490633363068696
 74
     0
  0
LTYPE
  5
43
330
5
100
AcDbSymbolTableRecord
100
AcDbLinetypeTableRecord
  2
BORDERX2
 70
     0
  3
CADPAC LINETYPE
 72
    65
 73
     6
 40
21.73840321141848
 49
6.210972346119565
 74
     0
 49
-3.105486173059783
 74
     0
 49
6.210972346119565
 74
     0
 49
-3.105486173059783
 74
     0
 49
0.0
 74
     0
 49
-3.105486173059783
 74
     0
  0
LTYPE
  5
44
330
5
100
AcDbSymbolTableRecord
100
AcDbLinetypeTableRecord
  2
BORDER
 70
     0
  3
CADPAC LINETYPE
 72
    65
 73
     6
 40
17.39072256913478
 49
4.968777876895652
 74
     0
 49
-2.484388938447826
 74
     0
 49
4.968777876895652
 74
     0
 49
-2.484388938447826
 74
     0
 49
0.0
 74
     0
 49
-2.484388938447826
 74
     0
  0
LTYPE
  5
45
330
5
100
AcDbSymbolTableRecord
100
AcDbLinetypeTableRecord
  2
BORDER2
 70
     0
  3
CADPAC LINETYPE
 72
    65
 73
     6
 40
12.91882247992866
 49
3.975022301516484
 74
     0
 49
-2.484388938447826
 74
     0
 49
1.490633363068696
 74
     0
 49
-2.484388938447826
 74
     0
 49
0.0
 74
     0
 49
-2.484388938447826
 74
     0
  0
LTYPE
  5
46
330
5
100
AcDbSymbolTableRecord
100
AcDbLinetypeTableRecord
  2
PHANTOMX2
 70
     0
  3
CADPAC LINETYPE
 72
    65
 73
     6
 40
18.6329170383587
 49
6.210972346119565
 74
     0
 49
-2.484388938447826
 74
     0
 49
2.484388938447826
 74
     0
 49
-2.484388938447826
 74
     0
 49
2.484388938447826
 74
     0
 49
-2.484388938447826
 74
     0
  0
LTYPE
  5
47
330
5
100
AcDbSymbolTableRecord
100
AcDbLinetypeTableRecord
  2
PHANTOM
 70
     0
  3
CADPAC LINETYPE
 72
    65
 73
     6
 40
15.40321141837652
 49
4.968777876895652
 74
     0
 49
-2.484388938447826
 74
     0
 49
1.490633363068696
 74
     0
 49
-2.484388938447826
 74
     0
 49
1.490633363068696
 74
     0
 49
-2.484388938447826
 74
     0
  0
LTYPE
  5
48
330
5
100
AcDbSymbolTableRecord
100
AcDbLinetypeTableRecord
  2
PHANTOM2
 70
     0
  3
CADPAC LINETYPE
 72
    65
 73
     6
 40
13.16726137377348
 49
3.726583407671739
 74
     0
 49
-2.484388938447826
 74
     0
 49
0.9937555753791305
 74
     0
 49
-2.484388938447826
 74
     0
 49
0.9937555753791305
 74
     0
 49
-2.484388938447826
 74
     0
  0
LTYPE
  5
49
330
5
100
AcDbSymbolTableRecord
100
AcDbLinetypeTableRecord
  2
ACAD_ISO06W100
 70
     0
  3
CADPAC LINETYPE
 72
    65
 73
     8
 40
26.33452274754692
 49
11.92506690454953
 74
     0
 49
-2.484388938447826
 74
     0
 49
1.490633363068696
 74
     0
 49
-2.484388938447826
 74
     0
 49
1.490633363068696
 74
     0
 49
-2.484388938447826
 74
     0
 49
1.490633363068696
 74
     0
 49
-2.484388938447826
 74
     0
  0
LTYPE
  5
4A
330
5
100
AcDbSymbolTableRecord
100
AcDbLinetypeTableRecord
  2
ACAD_ISO13W100
 70
     0
  3
CADPAC LINETYPE
 72
    65
 73
     8
 40
19.87511150758261
 49
4.968777876895652
 74
     0
 49
-2.484388938447826
 74
     0
 49
4.968777876895652
 74
     0
 49
-2.484388938447826
 74
     0
 49
0.0
 74
     0
 49
-2.484388938447826
 74
     0
 49
0.0
 74
     0
 49
-2.484388938447826
 74
     0
  0
LTYPE
  5
4B
330
5
100
AcDbSymbolTableRecord
100
AcDbLinetypeTableRecord
  2
ACAD_ISO14W100
 70
     0
  3
CADPAC LINETYPE
 72
    65
 73
     8
 40
14.90633363068696
 49
4.968777876895652
 74
     0
 49
-2.484388938447826
 74
     0
 49
0.0
 74
     0
 49
-2.484388938447826
 74
     0
 49
0.0
 74
     0
 49
-2.484388938447826
 74
     0
 49
0.0
 74
     0
 49
-2.484388938447826
 74
     0
  0
ENDTAB
  0
TABLE
  2
LAYER
  5
2
330
0
100
AcDbSymbolTable
 70
     5
  0
LAYER
  5
10
330
2
100
AcDbSymbolTableRecord
100
AcDbLayerTableRecord
  2
0
 70
     0
 62
     7
  6
CONTINUOUS
  0
LAYER
  5
2B
330
2
100
AcDbSymbolTableRecord
100
AcDbLayerTableRecord
  2
LAYER0002
 70
     0
 62
     7
  6
CONTINUOUS
  0
LAYER
  5
2C
330
2
100
AcDbSymbolTableRecord
100
AcDbLayerTableRecord
  2
LAYER0013
 70
     0
 62
     7
  6
CONTINUOUS
  0
LAYER
  5
2D
330
2
100
AcDbSymbolTableRecord
100
AcDbLayerTableRecord
  2
LAYER0014
 70
     0
 62
     7
  6
CONTINUOUS
  0
LAYER
  5
2E
330
2
100
AcDbSymbolTableRecord
100
AcDbLayerTableRecord
  2
ZUWAKU
 70
     0
 62
     7
  6
CONTINUOUS
  0
ENDTAB
  0
TABLE
  2
STYLE
  5
3
330
0
100
AcDbSymbolTable
 70
     3
  0
STYLE
  5
11
330
3
100
AcDbSymbolTableRecord
100
AcDbTextStyleTableRecord
  2
STANDARD
 70
     0
 40
0.0
 41
1.0
 50
0.0
 71
     0
 42
0.2
  3
txt
  4

  0
STYLE
  5
2F
330
3
100
AcDbSymbolTableRecord
100
AcDbTextStyleTableRecord
  2
DAVECTORFONT
 70
     0
 40
12.0
 41
1.0
 50
0.0
 71
     0
 42
0.2
  3
txt.shx
  4
bigfont.shx
  0
STYLE
  5
19F
330
3
100
AcDbSymbolTableRecord
100
AcDbTextStyleTableRecord
  2
FDASTYLE0
 70
     0
 40
15.0
 41
1.0
 50
0.0
 71
     0
 42
0.2
  3
hgrsgu.ttc
  4

1001
ACAD
1000
HGS創英角ｺﾞｼｯｸUB
1071
       34
  0
ENDTAB
  0
TABLE
  2
VIEW
  5
6
330
0
100
AcDbSymbolTable
 70
     0
  0
ENDTAB
  0
TABLE
  2
UCS
  5
7
330
0
100
AcDbSymbolTable
 70
     0
  0
ENDTAB
  0
TABLE
  2
APPID
  5
9
330
0
100
AcDbSymbolTable
 70
     2
  0
APPID
  5
12
330
9
100
AcDbSymbolTableRecord
100
AcDbRegAppTableRecord
  2
ACAD
 70
     0
  0
APPID
  5
2A
330
9
100
AcDbSymbolTableRecord
100
AcDbRegAppTableRecord
  2
DAFUSIONOUT
 70
     0
  0
ENDTAB
  0
TABLE
  2
DIMSTYLE
  5
A
330
0
100
AcDbSymbolTable
 70
     1
  0
DIMSTYLE
105
27
330
A
100
AcDbSymbolTableRecord
100
AcDbDimStyleTableRecord
  2
STANDARD
 70
     0
  3

  4

  5

  6

  7

 40
1.0
 41
0.18
 42
0.0625
 43
0.38
 44
0.18
 45
0.0
 46
0.0
 47
0.0
 48
0.0
140
0.18
141
0.09
142
0.0
143
25.4
144
1.0
145
0.0
146
1.0
147
0.09
 71
     0
 72
     0
 73
     1
 74
     1
 75
     0
 76
     0
 77
     0
 78
     0
170
     0
171
     2
172
     0
173
     0
174
     0
175
     0
176
     0
177
     0
178
     0
270
     2
271
     4
272
     4
273
     2
274
     2
340
11
275
     0
280
     0
281
     0
282
     0
283
     1
284
     0
285
     0
286
     0
287
     3
288
     0
  0
ENDTAB
  0
TABLE
  2
BLOCK_RECORD
  5
1
330
0
100
AcDbSymbolTable
 70
    40
  0
BLOCK_RECORD
  5
1F
330
1
100
AcDbSymbolTableRecord
100
AcDbBlockTableRecord
  2
*MODEL_SPACE
  0
BLOCK_RECORD
  5
1B
330
1
100
AcDbSymbolTableRecord
100
AcDbBlockTableRecord
  2
*PAPER_SPACE
  0
BLOCK_RECORD
  5
4C
330
1
100
AcDbSymbolTableRecord
100
AcDbBlockTableRecord
  2
GROUP_1
  0
BLOCK_RECORD
  5
4F
330
1
100
AcDbSymbolTableRecord
100
AcDbBlockTableRecord
  2
GROUP_2
  0
BLOCK_RECORD
  5
52
330
1
100
AcDbSymbolTableRecord
100
AcDbBlockTableRecord
  2
GROUP_3
  0
BLOCK_RECORD
  5
55
330
1
100
AcDbSymbolTableRecord
100
AcDbBlockTableRecord
  2
GROUP_4
  0
BLOCK_RECORD
  5
58
330
1
100
AcDbSymbolTableRecord
100
AcDbBlockTableRecord
  2
DA_IMAGEDIMGROUP_1
  0
BLOCK_RECORD
  5
5B
330
1
100
AcDbSymbolTableRecord
100
AcDbBlockTableRecord
  2
_OPEN30
  0
BLOCK_RECORD
  5
5E
330
1
100
AcDbSymbolTableRecord
100
AcDbBlockTableRecord
  2
DA_IMAGEDIMGROUP_2
  0
BLOCK_RECORD
  5
61
330
1
100
AcDbSymbolTableRecord
100
AcDbBlockTableRecord
  2
DA_IMAGEDIMGROUP_3
  0
BLOCK_RECORD
  5
64
330
1
100
AcDbSymbolTableRecord
100
AcDbBlockTableRecord
  2
DA_IMAGEDIMGROUP_4
  0
BLOCK_RECORD
  5
67
330
1
100
AcDbSymbolTableRecord
100
AcDbBlockTableRecord
  2
DA_IMAGEDIMGROUP_5
  0
BLOCK_RECORD
  5
6A
330
1
100
AcDbSymbolTableRecord
100
AcDbBlockTableRecord
  2
DA_IMAGEDIMGROUP_6
  0
BLOCK_RECORD
  5
6D
330
1
100
AcDbSymbolTableRecord
100
AcDbBlockTableRecord
  2
DA_IMAGEDIMGROUP_7
  0
BLOCK_RECORD
  5
70
330
1
100
AcDbSymbolTableRecord
100
AcDbBlockTableRecord
  2
DA_IMAGEDIMGROUP_8
  0
BLOCK_RECORD
  5
73
330
1
100
AcDbSymbolTableRecord
100
AcDbBlockTableRecord
  2
DA_IMAGEDIMGROUP_9
  0
BLOCK_RECORD
  5
76
330
1
100
AcDbSymbolTableRecord
100
AcDbBlockTableRecord
  2
DA_IMAGEDIMGROUP_10
  0
BLOCK_RECORD
  5
79
330
1
100
AcDbSymbolTableRecord
100
AcDbBlockTableRecord
  2
DA_IMAGEDIMGROUP_11
  0
BLOCK_RECORD
  5
7C
330
1
100
AcDbSymbolTableRecord
100
AcDbBlockTableRecord
  2
DA_IMAGEDIMGROUP_12
  0
BLOCK_RECORD
  5
7F
330
1
100
AcDbSymbolTableRecord
100
AcDbBlockTableRecord
  2
DA_IMAGEDIMGROUP_13
  0
BLOCK_RECORD
  5
82
330
1
100
AcDbSymbolTableRecord
100
AcDbBlockTableRecord
  2
DA_IMAGEDIMGROUP_14
  0
BLOCK_RECORD
  5
85
330
1
100
AcDbSymbolTableRecord
100
AcDbBlockTableRecord
  2
DA_IMAGEDIMGROUP_15
  0
BLOCK_RECORD
  5
88
330
1
100
AcDbSymbolTableRecord
100
AcDbBlockTableRecord
  2
DA_IMAGEDIMGROUP_16
  0
BLOCK_RECORD
  5
8B
330
1
100
AcDbSymbolTableRecord
100
AcDbBlockTableRecord
  2
DA_IMAGEDIMGROUP_17
  0
BLOCK_RECORD
  5
8E
330
1
100
AcDbSymbolTableRecord
100
AcDbBlockTableRecord
  2
DA_IMAGEDIMGROUP_18
  0
BLOCK_RECORD
  5
91
330
1
100
AcDbSymbolTableRecord
100
AcDbBlockTableRecord
  2
DA_IMAGEDIMGROUP_19
  0
BLOCK_RECORD
  5
94
330
1
100
AcDbSymbolTableRecord
100
AcDbBlockTableRecord
  2
DA_IMAGEDIMGROUP_20
  0
BLOCK_RECORD
  5
97
330
1
100
AcDbSymbolTableRecord
100
AcDbBlockTableRecord
  2
DA_IMAGEDIMGROUP_21
  0
BLOCK_RECORD
  5
9A
330
1
100
AcDbSymbolTableRecord
100
AcDbBlockTableRecord
  2
DA_IMAGEDIMGROUP_22
  0
BLOCK_RECORD
  5
9D
330
1
100
AcDbSymbolTableRecord
100
AcDbBlockTableRecord
  2
DA_IMAGEDIMGROUP_23
  0
BLOCK_RECORD
  5
A0
330
1
100
AcDbSymbolTableRecord
100
AcDbBlockTableRecord
  2
GROUP_5
  0
BLOCK_RECORD
  5
A3
330
1
100
AcDbSymbolTableRecord
100
AcDbBlockTableRecord
  2
DA_IMAGEDIMGROUP_24
  0
BLOCK_RECORD
  5
A6
330
1
100
AcDbSymbolTableRecord
100
AcDbBlockTableRecord
  2
DA_IMAGEDIMGROUP_25
  0
BLOCK_RECORD
  5
A9
330
1
100
AcDbSymbolTableRecord
100
AcDbBlockTableRecord
  2
DA_IMAGEDIMGROUP_26
  0
BLOCK_RECORD
  5
AC
330
1
100
AcDbSymbolTableRecord
100
AcDbBlockTableRecord
  2
DA_IMAGEDIMGROUP_27
  0
BLOCK_RECORD
  5
AF
330
1
100
AcDbSymbolTableRecord
100
AcDbBlockTableRecord
  2
GROUP_6
  0
BLOCK_RECORD
  5
B2
330
1
100
AcDbSymbolTableRecord
100
AcDbBlockTableRecord
  2
DA_IMAGEDIMGROUP_28
  0
BLOCK_RECORD
  5
B5
330
1
100
AcDbSymbolTableRecord
100
AcDbBlockTableRecord
  2
GROUP_7
  0
BLOCK_RECORD
  5
B8
330
1
100
AcDbSymbolTableRecord
100
AcDbBlockTableRecord
  2
DA_IMAGEDIMGROUP_29
  0
BLOCK_RECORD
  5
BB
330
1
100
AcDbSymbolTableRecord
100
AcDbBlockTableRecord
  2
DA_IMAGEDIMGROUP_30
  0
BLOCK_RECORD
  5
BE
330
1
100
AcDbSymbolTableRecord
100
AcDbBlockTableRecord
  2
GROUP_8
  0
ENDTAB
  0
ENDSEC
  0
SECTION
  2
BLOCKS
  0
BLOCK
  5
20
330
1F
100
AcDbEntity
  8
0
100
AcDbBlockBegin
  2
*MODEL_SPACE
 70
     0
 71
     0
 10
0.0
 20
0.0
 30
0.0
  3
*MODEL_SPACE
  1

  0
ENDBLK
  5
21
330
1F
100
AcDbEntity
  8
0
100
AcDbBlockEnd
  0
BLOCK
  5
1C
330
1B
100
AcDbEntity
 67
     1
  8
0
100
AcDbBlockBegin
  2
*PAPER_SPACE
 70
     0
 71
     0
 10
0.0
 20
0.0
 30
0.0
  3
*PAPER_SPACE
  1

  0
ENDBLK
  5
1D
330
1B
100
AcDbEntity
 67
     1
  8
0
100
AcDbBlockEnd
  0
BLOCK
  5
4D
330
4C
100
AcDbEntity
  8
0
100
AcDbBlockBegin
  2
GROUP_1
 70
     0
 71
     0
 10
0.0
 20
0.0
 30
0.0
  3
GROUP_1
  1

  0
LINE
  5
C1
330
4C
100
AcDbEntity
  8
0
  6
CENTER
 62
     2
100
AcDbLine
 10
-466.4380231512326
 20
404.1622290114227
 30
0.0
 11
-503.5580231512324
 21
404.1622290114227
 31
0.0
  0
LINE
  5
C2
330
4C
100
AcDbEntity
  8
0
  6
CENTER
 62
     2
100
AcDbLine
 10
-484.9980231512325
 20
422.7222290114227
 30
0.0
 11
-484.9980231512325
 21
385.6022290114228
 31
0.0
  0
ENDBLK
  5
4E
330
4C
100
AcDbEntity
  8
0
100
AcDbBlockEnd
  0
BLOCK
  5
50
330
4F
100
AcDbEntity
  8
0
100
AcDbBlockBegin
  2
GROUP_2
 70
     0
 71
     0
 10
0.0
 20
0.0
 30
0.0
  3
GROUP_2
  1

  0
LINE
  5
C3
330
4F
100
AcDbEntity
  8
0
  6
CENTER
 62
     2
100
AcDbLine
 10
-326.4380231512324
 20
404.1622290114226
 30
0.0
 11
-363.5580231512323
 21
404.1622290114226
 31
0.0
  0
LINE
  5
C4
330
4F
100
AcDbEntity
  8
0
  6
CENTER
 62
     2
100
AcDbLine
 10
-344.9980231512324
 20
422.7222290114225
 30
0.0
 11
-344.9980231512324
 21
385.6022290114227
 31
0.0
  0
ENDBLK
  5
51
330
4F
100
AcDbEntity
  8
0
100
AcDbBlockEnd
  0
BLOCK
  5
53
330
52
100
AcDbEntity
  8
0
100
AcDbBlockBegin
  2
GROUP_3
 70
     0
 71
     0
 10
0.0
 20
0.0
 30
0.0
  3
GROUP_3
  1

  0
LINE
  5
C5
330
52
100
AcDbEntity
  8
0
  6
CENTER
 62
     2
100
AcDbLine
 10
-466.4380231512326
 20
173.2943013991188
 30
0.0
 11
-503.5580231512324
 21
173.2943013991188
 31
0.0
  0
LINE
  5
C6
330
52
100
AcDbEntity
  8
0
  6
CENTER
 62
     2
100
AcDbLine
 10
-484.9980231512325
 20
191.8543013991188
 30
0.0
 11
-484.9980231512325
 21
154.7343013991189
 31
0.0
  0
ENDBLK
  5
54
330
52
100
AcDbEntity
  8
0
100
AcDbBlockEnd
  0
BLOCK
  5
56
330
55
100
AcDbEntity
  8
0
100
AcDbBlockBegin
  2
GROUP_4
 70
     0
 71
     0
 10
0.0
 20
0.0
 30
0.0
  3
GROUP_4
  1

  0
LINE
  5
C7
330
55
100
AcDbEntity
  8
0
  6
CENTER
 62
     2
100
AcDbLine
 10
-326.4380231512324
 20
173.294301399119
 30
0.0
 11
-363.5580231512323
 21
173.294301399119
 31
0.0
  0
LINE
  5
C8
330
55
100
AcDbEntity
  8
0
  6
CENTER
 62
     2
100
AcDbLine
 10
-344.9980231512324
 20
191.8543013991189
 30
0.0
 11
-344.9980231512324
 21
154.734301399119
 31
0.0
  0
ENDBLK
  5
57
330
55
100
AcDbEntity
  8
0
100
AcDbBlockEnd
  0
BLOCK
  5
59
330
58
100
AcDbEntity
  8
0
100
AcDbBlockBegin
  2
DA_IMAGEDIMGROUP_1
 70
     0
 71
     0
 10
0.0
 20
0.0
 30
0.0
  3
DA_IMAGEDIMGROUP_1
  1

  0
LINE
  5
C9
330
58
100
AcDbEntity
  8
LAYER0014
 62
     2
100
AcDbLine
 10
-510.9146536174869
 20
160.7282652052709
 30
0.0
 11
-510.9146536174869
 21
416.7282652052704
 31
0.0
  0
INSERT
  5
CA
330
58
100
AcDbEntity
  8
LAYER0014
 62
     2
100
AcDbBlockReference
  2
_OPEN30
 10
-510.9146536174869
 20
160.7282652052709
 30
0.0
 41
9.175922197305043
 42
6.038325706448341
 50
270.0
  0
INSERT
  5
CB
330
58
100
AcDbEntity
  8
LAYER0014
 62
     2
100
AcDbBlockReference
  2
_OPEN30
 10
-510.9146536174869
 20
416.7282652052704
 30
0.0
 41
9.175922197305043
 42
6.038325706448341
 50
90.0
  0
LINE
  5
CC
330
58
100
AcDbEntity
  8
LAYER0014
 62
     2
100
AcDbLine
 10
-554.3980231512326
 20
160.7282652052709
 30
0.0
 11
-508.5146536174871
 21
160.7282652052709
 31
0.0
  0
LINE
  5
CD
330
58
100
AcDbEntity
  8
LAYER0014
 62
     2
100
AcDbLine
 10
-554.3980231512326
 20
416.7282652052704
 30
0.0
 11
-508.5146536174871
 21
416.7282652052704
 31
0.0
  0
TEXT
  5
CE
330
58
100
AcDbEntity
  8
LAYER0014
 62
     2
100
AcDbText
 10
-513.314653617487
 20
274.3282652052707
 30
0.0
 40
12.0
  1
256
 50
90.0
 41
0.8842105263157881
  7
DAVECTORFONT
 72
     5
 11
-513.314653617487
 21
303.1282652052706
 31
0.0
100
AcDbText
  0
ENDBLK
  5
5A
330
58
100
AcDbEntity
  8
0
100
AcDbBlockEnd
  0
BLOCK
  5
5C
330
5B
100
AcDbEntity
  8
0
100
AcDbBlockBegin
  2
_OPEN30
 70
     0
 71
     0
 10
0.0
 20
0.0
 30
0.0
  3
_OPEN30
  1

  0
LINE
  5
CF
330
5B
100
AcDbEntity
  8
0
 62
     0
100
AcDbLine
 10
0.0
 20
0.0
 30
0.0
 11
-0.9659258262890683
 21
0.2588190451025207
 31
0.0
  0
LINE
  5
D0
330
5B
100
AcDbEntity
  8
0
 62
     0
100
AcDbLine
 10
0.0
 20
0.0
 30
0.0
 11
-0.9659258262890683
 21
-0.2588190451025207
 31
0.0
  0
LINE
  5
D1
330
5B
100
AcDbEntity
  8
0
 62
     0
100
AcDbLine
 10
0.0
 20
0.0
 30
0.0
 11
-1.0
 21
0.0
 31
0.0
  0
ENDBLK
  5
5D
330
5B
100
AcDbEntity
  8
0
100
AcDbBlockEnd
  0
BLOCK
  5
5F
330
5E
100
AcDbEntity
  8
0
100
AcDbBlockBegin
  2
DA_IMAGEDIMGROUP_2
 70
     0
 71
     0
 10
0.0
 20
0.0
 30
0.0
  3
DA_IMAGEDIMGROUP_2
  1

  0
LINE
  5
D2
330
5E
100
AcDbEntity
  8
LAYER0014
 62
     2
100
AcDbLine
 10
-296.6062976187394
 20
193.7282652052707
 30
0.0
 11
-296.6062976187394
 21
383.7282652052707
 31
0.0
  0
INSERT
  5
D3
330
5E
100
AcDbEntity
  8
LAYER0014
 62
     2
100
AcDbBlockReference
  2
_OPEN30
 10
-296.6062976187394
 20
193.7282652052707
 30
0.0
 41
9.175922197305043
 42
6.038325706448341
 50
270.0
  0
INSERT
  5
D4
330
5E
100
AcDbEntity
  8
LAYER0014
 62
     2
100
AcDbBlockReference
  2
_OPEN30
 10
-296.6062976187394
 20
383.7282652052707
 30
0.0
 41
9.175922197305043
 42
6.038325706448341
 50
90.0
  0
TEXT
  5
D5
330
5E
100
AcDbEntity
  8
LAYER0014
 62
     2
100
AcDbText
 10
-299.0062976187394
 20
274.3282652052707
 30
0.0
 40
12.0
  1
190
 50
90.0
 41
0.8842105263157881
  7
DAVECTORFONT
 72
     5
 11
-299.0062976187394
 21
303.1282652052706
 31
0.0
100
AcDbText
  0
ENDBLK
  5
60
330
5E
100
AcDbEntity
  8
0
100
AcDbBlockEnd
  0
BLOCK
  5
62
330
61
100
AcDbEntity
  8
0
100
AcDbBlockBegin
  2
DA_IMAGEDIMGROUP_3
 70
     0
 71
     0
 10
0.0
 20
0.0
 30
0.0
  3
DA_IMAGEDIMGROUP_3
  1

  0
LINE
  5
D6
330
61
100
AcDbEntity
  8
LAYER0014
 62
     2
100
AcDbLine
 10
-433.5980231512326
 20
153.7282652052708
 30
0.0
 11
-764.3980231512326
 21
153.7282652052708
 31
0.0
  0
LINE
  5
D7
330
61
100
AcDbEntity
  8
LAYER0014
 62
     2
100
AcDbLine
 10
-433.5980231512326
 20
423.7282652052708
 30
0.0
 11
-764.3980231512326
 21
423.7282652052708
 31
0.0
  0
LINE
  5
D8
330
61
100
AcDbEntity
  8
LAYER0014
 62
     2
100
AcDbLine
 10
-761.9980231512325
 20
153.7282652052708
 30
0.0
 11
-761.9980231512325
 21
423.7282652052708
 31
0.0
  0
INSERT
  5
D9
330
61
100
AcDbEntity
  8
LAYER0014
 62
     2
100
AcDbBlockReference
  2
_OPEN30
 10
-761.9980231512325
 20
153.7282652052708
 30
0.0
 41
9.175922197305043
 42
6.038325706448341
 50
270.0
  0
INSERT
  5
DA
330
61
100
AcDbEntity
  8
LAYER0014
 62
     2
100
AcDbBlockReference
  2
_OPEN30
 10
-761.9980231512325
 20
423.7282652052708
 30
0.0
 41
9.175922197305043
 42
6.038325706448341
 50
90.0
  0
TEXT
  5
DB
330
61
100
AcDbEntity
  8
LAYER0014
 62
     2
100
AcDbText
 10
-764.3980231512326
 20
274.3282652052708
 30
0.0
 40
12.0
  1
270
 50
90.0
 41
0.8842105263157881
  7
DAVECTORFONT
 72
     5
 11
-764.3980231512326
 21
303.1282652052707
 31
0.0
100
AcDbText
  0
ENDBLK
  5
63
330
61
100
AcDbEntity
  8
0
100
AcDbBlockEnd
  0
BLOCK
  5
65
330
64
100
AcDbEntity
  8
0
100
AcDbBlockBegin
  2
DA_IMAGEDIMGROUP_4
 70
     0
 71
     0
 10
0.0
 20
0.0
 30
0.0
  3
DA_IMAGEDIMGROUP_4
  1

  0
LINE
  5
DC
330
64
100
AcDbEntity
  8
LAYER0014
 62
     2
100
AcDbLine
 10
48.60197684876741
 20
156.2282652052708
 30
0.0
 11
296.4019768487676
 21
156.2282652052708
 31
0.0
  0
LINE
  5
DD
330
64
100
AcDbEntity
  8
LAYER0014
 62
     2
100
AcDbLine
 10
48.60197684876741
 20
421.2282652052708
 30
0.0
 11
296.4019768487676
 21
421.2282652052708
 31
0.0
  0
LINE
  5
DE
330
64
100
AcDbEntity
  8
LAYER0014
 62
     2
100
AcDbLine
 10
294.0019768487676
 20
156.2282652052708
 30
0.0
 11
294.0019768487676
 21
421.2282652052708
 31
0.0
  0
INSERT
  5
DF
330
64
100
AcDbEntity
  8
LAYER0014
 62
     2
100
AcDbBlockReference
  2
_OPEN30
 10
294.0019768487676
 20
156.2282652052708
 30
0.0
 41
9.175922197305043
 42
6.038325706448341
 50
270.0
  0
INSERT
  5
E0
330
64
100
AcDbEntity
  8
LAYER0014
 62
     2
100
AcDbBlockReference
  2
_OPEN30
 10
294.0019768487676
 20
421.2282652052708
 30
0.0
 41
9.175922197305043
 42
6.038325706448341
 50
90.0
  0
TEXT
  5
E1
330
64
100
AcDbEntity
  8
LAYER0014
 62
     2
100
AcDbText
 10
291.6019768487676
 20
274.3282652052708
 30
0.0
 40
12.0
  1
265
 50
90.0
 41
0.8842105263157881
  7
DAVECTORFONT
 72
     5
 11
291.6019768487676
 21
303.1282652052707
 31
0.0
100
AcDbText
  0
ENDBLK
  5
66
330
64
100
AcDbEntity
  8
0
100
AcDbBlockEnd
  0
BLOCK
  5
68
330
67
100
AcDbEntity
  8
0
100
AcDbBlockBegin
  2
DA_IMAGEDIMGROUP_5
 70
     0
 71
     0
 10
0.0
 20
0.0
 30
0.0
  3
DA_IMAGEDIMGROUP_5
  1

  0
LINE
  5
E2
330
67
100
AcDbEntity
  8
LAYER0014
 62
     2
100
AcDbLine
 10
-181.3980231512324
 20
128.7282652052707
 30
0.0
 11
323.4019768487676
 21
128.7282652052707
 31
0.0
  0
LINE
  5
E3
330
67
100
AcDbEntity
  8
LAYER0014
 62
     2
100
AcDbLine
 10
-181.3980231512324
 20
448.7282652052708
 30
0.0
 11
323.4019768487676
 21
448.7282652052708
 31
0.0
  0
LINE
  5
E4
330
67
100
AcDbEntity
  8
LAYER0014
 62
     2
100
AcDbLine
 10
321.0019768487676
 20
128.7282652052707
 30
0.0
 11
321.0019768487676
 21
448.7282652052708
 31
0.0
  0
INSERT
  5
E5
330
67
100
AcDbEntity
  8
LAYER0014
 62
     2
100
AcDbBlockReference
  2
_OPEN30
 10
321.0019768487676
 20
128.7282652052707
 30
0.0
 41
9.175922197305043
 42
6.038325706448341
 50
270.0
  0
INSERT
  5
E6
330
67
100
AcDbEntity
  8
LAYER0014
 62
     2
100
AcDbBlockReference
  2
_OPEN30
 10
321.0019768487676
 20
448.7282652052708
 30
0.0
 41
9.175922197305043
 42
6.038325706448341
 50
90.0
  0
TEXT
  5
E7
330
67
100
AcDbEntity
  8
LAYER0014
 62
     2
100
AcDbText
 10
318.6019768487676
 20
274.3282652052708
 30
0.0
 40
12.0
  1
320
 50
90.0
 41
0.8842105263157881
  7
DAVECTORFONT
 72
     5
 11
318.6019768487676
 21
303.1282652052707
 31
0.0
100
AcDbText
  0
ENDBLK
  5
69
330
67
100
AcDbEntity
  8
0
100
AcDbBlockEnd
  0
BLOCK
  5
6B
330
6A
100
AcDbEntity
  8
0
100
AcDbBlockBegin
  2
DA_IMAGEDIMGROUP_6
 70
     0
 71
     0
 10
0.0
 20
0.0
 30
0.0
  3
DA_IMAGEDIMGROUP_6
  1

  0
LINE
  5
E8
330
6A
100
AcDbEntity
  8
LAYER0014
 62
     2
100
AcDbLine
 10
-403.9980231512325
 20
125.1282652052707
 30
0.0
 11
-403.9980231512325
 21
99.32826520527067
 31
0.0
  0
LINE
  5
E9
330
6A
100
AcDbEntity
  8
LAYER0014
 62
     2
100
AcDbLine
 10
-425.9980231512325
 20
125.5068380721943
 30
0.0
 11
-425.9980231512325
 21
99.32826520527067
 31
0.0
  0
LINE
  5
EA
330
6A
100
AcDbEntity
  8
LAYER0014
 62
     2
100
AcDbLine
 10
-425.9980231512325
 20
101.7282652052707
 30
0.0
 11
-403.9980231512325
 21
101.7282652052707
 31
0.0
  0
LINE
  5
EB
330
6A
100
AcDbEntity
  8
LAYER0014
 62
     2
100
AcDbLine
 10
-375.9347631512325
 20
101.7282652052707
 30
0.0
 11
-403.9980231512325
 21
101.7282652052707
 31
0.0
  0
INSERT
  5
EC
330
6A
100
AcDbEntity
  8
LAYER0014
 62
     2
100
AcDbBlockReference
  2
_OPEN30
 10
-403.9980231512325
 20
101.7282652052707
 30
0.0
 41
9.175922197305043
 42
6.038325706448341
 50
180.0
  0
LINE
  5
ED
330
6A
100
AcDbEntity
  8
LAYER0014
 62
     2
100
AcDbLine
 10
-436.4980231512325
 20
101.7282652052707
 30
0.0
 11
-425.9980231512325
 21
101.7282652052707
 31
0.0
  0
INSERT
  5
EE
330
6A
100
AcDbEntity
  8
LAYER0014
 62
     2
100
AcDbBlockReference
  2
_OPEN30
 10
-425.9980231512325
 20
101.7282652052707
 30
0.0
 41
9.175922197305043
 42
6.038325706448341
 50
360.0
  0
TEXT
  5
EF
330
6A
100
AcDbEntity
  8
LAYER0014
 62
     2
100
AcDbText
 10
-395.1347631512325
 20
104.1282652052707
 30
0.0
 40
12.0
  1
22
 41
0.9081081081081077
  7
DAVECTORFONT
 72
     5
 11
-375.9347631512325
 21
104.1282652052707
 31
0.0
100
AcDbText
  0
ENDBLK
  5
6C
330
6A
100
AcDbEntity
  8
0
100
AcDbBlockEnd
  0
BLOCK
  5
6E
330
6D
100
AcDbEntity
  8
0
100
AcDbBlockBegin
  2
DA_IMAGEDIMGROUP_7
 70
     0
 71
     0
 10
0.0
 20
0.0
 30
0.0
  3
DA_IMAGEDIMGROUP_7
  1

  0
LINE
  5
F0
330
6D
100
AcDbEntity
  8
LAYER0014
 62
     2
100
AcDbLine
 10
-414.9980231512325
 20
130.1282652052708
 30
0.0
 11
-414.9980231512325
 21
72.32826520527067
 31
0.0
  0
LINE
  5
F1
330
6D
100
AcDbEntity
  8
LAYER0014
 62
     2
100
AcDbLine
 10
-284.9980231512324
 20
135.1282652052708
 30
0.0
 11
-284.9980231512324
 21
72.32826520527067
 31
0.0
  0
LINE
  5
F2
330
6D
100
AcDbEntity
  8
LAYER0014
 62
     2
100
AcDbLine
 10
-184.9980231512324
 20
135.1282652052708
 30
0.0
 11
-184.9980231512324
 21
72.32826520527067
 31
0.0
  0
LINE
  5
F3
330
6D
100
AcDbEntity
  8
LAYER0014
 62
     2
100
AcDbLine
 10
-414.9980231512325
 20
74.72826520527066
 30
0.0
 11
-284.9980231512324
 21
74.72826520527066
 31
0.0
  0
INSERT
  5
F4
330
6D
100
AcDbEntity
  8
LAYER0014
 62
     2
100
AcDbBlockReference
  2
_OPEN30
 10
-414.9980231512325
 20
74.72826520527066
 30
0.0
 41
9.175922197305043
 42
6.038325706448341
 50
180.0
  0
INSERT
  5
F5
330
6D
100
AcDbEntity
  8
LAYER0014
 62
     2
100
AcDbBlockReference
  2
_OPEN30
 10
-284.9980231512324
 20
74.72826520527066
 30
0.0
 41
9.175922197305043
 42
6.038325706448341
 50
360.0
  0
LINE
  5
F6
330
6D
100
AcDbEntity
  8
LAYER0014
 62
     2
100
AcDbLine
 10
-284.9980231512324
 20
74.72826520527066
 30
0.0
 11
-184.9980231512324
 21
74.72826520527066
 31
0.0
  0
INSERT
  5
F7
330
6D
100
AcDbEntity
  8
LAYER0014
 62
     2
100
AcDbBlockReference
  2
_OPEN30
 10
-284.9980231512324
 20
74.72826520527066
 30
0.0
 41
9.175922197305043
 42
6.038325706448341
 50
180.0
  0
INSERT
  5
F8
330
6D
100
AcDbEntity
  8
LAYER0014
 62
     2
100
AcDbBlockReference
  2
_OPEN30
 10
-184.9980231512324
 20
74.72826520527066
 30
0.0
 41
9.175922197305043
 42
6.038325706448341
 50
360.0
  0
TEXT
  5
F9
330
6D
100
AcDbEntity
  8
LAYER0014
 62
     2
100
AcDbText
 10
-364.3980231512324
 20
77.12826520527065
 30
0.0
 40
12.0
  1
130
 41
0.8842105263157881
  7
DAVECTORFONT
 72
     5
 11
-335.5980231512324
 21
77.12826520527065
 31
0.0
100
AcDbText
  0
TEXT
  5
FA
330
6D
100
AcDbEntity
  8
LAYER0014
 62
     2
100
AcDbText
 10
-249.3980231512324
 20
77.12826520527065
 30
0.0
 40
12.0
  1
100
 41
0.8842105263157899
  7
DAVECTORFONT
 72
     5
 11
-220.5980231512324
 21
77.12826520527065
 31
0.0
100
AcDbText
  0
ENDBLK
  5
6F
330
6D
100
AcDbEntity
  8
0
100
AcDbBlockEnd
  0
BLOCK
  5
71
330
70
100
AcDbEntity
  8
0
100
AcDbBlockBegin
  2
DA_IMAGEDIMGROUP_8
 70
     0
 71
     0
 10
0.0
 20
0.0
 30
0.0
  3
DA_IMAGEDIMGROUP_8
  1

  0
LINE
  5
FB
330
70
100
AcDbEntity
  8
LAYER0014
 62
     2
100
AcDbLine
 10
-344.9980231512324
 20
426.3222290114226
 30
0.0
 11
-344.9980231512324
 21
478.1282652052707
 31
0.0
  0
LINE
  5
FC
330
70
100
AcDbEntity
  8
LAYER0014
 62
     2
100
AcDbLine
 10
-484.9980231512325
 20
426.3222290114227
 30
0.0
 11
-484.9980231512325
 21
478.1282652052707
 31
0.0
  0
LINE
  5
FD
330
70
100
AcDbEntity
  8
LAYER0014
 62
     2
100
AcDbLine
 10
-484.9980231512325
 20
475.7282652052708
 30
0.0
 11
-344.9980231512324
 21
475.7282652052708
 31
0.0
  0
INSERT
  5
FE
330
70
100
AcDbEntity
  8
LAYER0014
 62
     2
100
AcDbBlockReference
  2
_OPEN30
 10
-484.9980231512325
 20
475.7282652052708
 30
0.0
 41
9.175922197305043
 42
6.038325706448341
 50
180.0
  0
INSERT
  5
FF
330
70
100
AcDbEntity
  8
LAYER0014
 62
     2
100
AcDbBlockReference
  2
_OPEN30
 10
-344.9980231512324
 20
475.7282652052708
 30
0.0
 41
9.175922197305043
 42
6.038325706448341
 50
360.0
  0
TEXT
  5
100
330
70
100
AcDbEntity
  8
LAYER0014
 62
     2
100
AcDbText
 10
-429.3980231512324
 20
478.1282652052707
 30
0.0
 40
12.0
  1
140
 41
0.8842105263157881
  7
DAVECTORFONT
 72
     5
 11
-400.5980231512324
 21
478.1282652052707
 31
0.0
100
AcDbText
  0
ENDBLK
  5
72
330
70
100
AcDbEntity
  8
0
100
AcDbBlockEnd
  0
BLOCK
  5
74
330
73
100
AcDbEntity
  8
0
100
AcDbBlockBegin
  2
DA_IMAGEDIMGROUP_9
 70
     0
 71
     0
 10
0.0
 20
0.0
 30
0.0
  3
DA_IMAGEDIMGROUP_9
  1

  0
LINE
  5
101
330
73
100
AcDbEntity
  8
LAYER0014
 62
     2
100
AcDbLine
 10
-734.9980231512325
 20
192.6282652052709
 30
0.0
 11
-734.9980231512325
 21
45.32826520527064
 31
0.0
  0
LINE
  5
102
330
73
100
AcDbEntity
  8
LAYER0014
 62
     2
100
AcDbLine
 10
267.0019768487676
 20
274.6282652052707
 30
0.0
 11
267.0019768487676
 21
45.32826520527067
 31
0.0
  0
LINE
  5
103
330
73
100
AcDbEntity
  8
LAYER0014
 62
     2
100
AcDbLine
 10
-734.9980231512325
 20
47.72826520527066
 30
0.0
 11
267.0019768487675
 21
47.72826520527066
 31
0.0
  0
INSERT
  5
104
330
73
100
AcDbEntity
  8
LAYER0014
 62
     2
100
AcDbBlockReference
  2
_OPEN30
 10
-734.9980231512325
 20
47.72826520527066
 30
0.0
 41
9.175922197305043
 42
6.038325706448341
 50
180.0
  0
INSERT
  5
105
330
73
100
AcDbEntity
  8
LAYER0014
 62
     2
100
AcDbBlockReference
  2
_OPEN30
 10
267.0019768487676
 20
47.72826520527066
 30
0.0
 41
9.175922197305043
 42
6.038325706448341
 50
360.0
  0
TEXT
  5
106
330
73
100
AcDbEntity
  8
LAYER0014
 62
     2
100
AcDbText
 10
-253.1980231512325
 20
50.12826520527067
 30
0.0
 40
12.0
  1
MAX:
 41
0.9882352941176463
  7
DAVECTORFONT
 72
     5
 11
-214.7980231512325
 21
50.12826520527067
 31
0.0
100
AcDbText
  0
ENDBLK
  5
75
330
73
100
AcDbEntity
  8
0
100
AcDbBlockEnd
  0
BLOCK
  5
77
330
76
100
AcDbEntity
  8
0
100
AcDbBlockBegin
  2
DA_IMAGEDIMGROUP_10
 70
     0
 71
     0
 10
0.0
 20
0.0
 30
0.0
  3
DA_IMAGEDIMGROUP_10
  1

  0
LINE
  5
107
330
76
100
AcDbEntity
  8
LAYER0014
 62
     2
100
AcDbLine
 10
-313.1408861582781
 20
200.127341713478
 30
0.0
 11
-516.8551601441868
 21
377.3291886970635
 31
0.0
  0
INSERT
  5
108
330
76
100
AcDbEntity
  8
LAYER0014
 62
     2
100
AcDbBlockReference
  2
_OPEN30
 10
-313.1408861582781
 20
200.127341713478
 30
0.0
 41
9.175922197305043
 42
6.038325706448341
 50
318.9814652884414
  0
INSERT
  5
109
330
76
100
AcDbEntity
  8
LAYER0014
 62
     2
100
AcDbBlockReference
  2
_OPEN30
 10
-516.8551601441868
 20
377.3291886970635
 30
0.0
 41
9.175922197305043
 42
6.038325706448341
 50
138.9814652884413
  0
TEXT
  5
10A
330
76
100
AcDbEntity
  8
LAYER0014
 62
     2
100
AcDbText
 10
-506.4728465630861
 20
371.4790088386985
 30
0.0
 40
12.0
  1
PCD270
 50
318.9814652884414
 41
0.8399999999999999
  7
DAVECTORFONT
 72
     5
 11
-463.0138014460923
 21
333.6759481488669
 31
0.0
100
AcDbText
  0
ENDBLK
  5
78
330
76
100
AcDbEntity
  8
0
100
AcDbBlockEnd
  0
BLOCK
  5
7A
330
79
100
AcDbEntity
  8
0
100
AcDbBlockBegin
  2
DA_IMAGEDIMGROUP_11
 70
     0
 71
     0
 10
0.0
 20
0.0
 30
0.0
  3
DA_IMAGEDIMGROUP_11
  1

  0
LINE
  5
10B
330
79
100
AcDbEntity
  8
LAYER0014
 62
     2
100
AcDbLine
 10
-423.9980231512328
 20
-311.8705714372569
 30
0.0
 11
-423.9980231512328
 21
-337.6705714372569
 31
0.0
  0
LINE
  5
10C
330
79
100
AcDbEntity
  8
LAYER0014
 62
     2
100
AcDbLine
 10
-405.9980231512328
 20
-311.8705714372569
 30
0.0
 11
-405.9980231512328
 21
-337.6705714372569
 31
0.0
  0
LINE
  5
10D
330
79
100
AcDbEntity
  8
LAYER0014
 62
     2
100
AcDbLine
 10
-423.9980231512328
 20
-335.2705714372569
 30
0.0
 11
-405.9980231512328
 21
-335.2705714372569
 31
0.0
  0
LINE
  5
10E
330
79
100
AcDbEntity
  8
LAYER0014
 62
     2
100
AcDbLine
 10
-467.906189582897
 20
-335.2705714372569
 30
0.0
 11
-423.9980231512328
 21
-335.2705714372569
 31
0.0
  0
INSERT
  5
10F
330
79
100
AcDbEntity
  8
LAYER0014
 62
     2
100
AcDbBlockReference
  2
_OPEN30
 10
-423.9980231512328
 20
-335.2705714372569
 30
0.0
 41
9.175922197305043
 42
6.038325706448341
 50
360.0
  0
LINE
  5
110
330
79
100
AcDbEntity
  8
LAYER0014
 62
     2
100
AcDbLine
 10
-395.4980231512328
 20
-335.2705714372569
 30
0.0
 11
-405.9980231512328
 21
-335.2705714372569
 31
0.0
  0
INSERT
  5
111
330
79
100
AcDbEntity
  8
LAYER0014
 62
     2
100
AcDbBlockReference
  2
_OPEN30
 10
-405.9980231512328
 20
-335.2705714372569
 30
0.0
 41
9.175922197305043
 42
6.038325706448341
 50
180.0
  0
TEXT
  5
112
330
79
100
AcDbEntity
  8
LAYER0014
 62
     2
100
AcDbText
 10
-467.906189582897
 20
-332.8705714372569
 30
0.0
 40
12.0
  1
18
 41
0.9081081081081077
  7
DAVECTORFONT
 72
     5
 11
-448.706189582897
 21
-332.8705714372569
 31
0.0
100
AcDbText
  0
TEXT
  5
113
330
79
100
AcDbEntity
  8
LAYER0014
 62
     2
100
AcDbText
 10
-447.206189582897
 20
-332.8705714372569
 30
0.0
 40
12.0
  1
h6
 41
0.9333333333333329
  7
DAVECTORFONT
 72
     5
 11
-428.006189582897
 21
-332.8705714372569
 31
0.0
100
AcDbText
  0
ENDBLK
  5
7B
330
79
100
AcDbEntity
  8
0
100
AcDbBlockEnd
  0
BLOCK
  5
7D
330
7C
100
AcDbEntity
  8
0
100
AcDbBlockBegin
  2
DA_IMAGEDIMGROUP_12
 70
     0
 71
     0
 10
0.0
 20
0.0
 30
0.0
  3
DA_IMAGEDIMGROUP_12
  1

  0
LINE
  5
114
330
7C
100
AcDbEntity
  8
LAYER0014
 62
     2
100
AcDbLine
 10
-414.9980231512328
 20
-311.6424076160147
 30
0.0
 11
-414.9980231512328
 21
-364.6705714372569
 31
0.0
  0
LINE
  5
115
330
7C
100
AcDbEntity
  8
LAYER0014
 62
     2
100
AcDbLine
 10
-557.9980231512327
 20
-185.8705714372574
 30
0.0
 11
-557.9980231512327
 21
-364.6705714372569
 31
0.0
  0
LINE
  5
116
330
7C
100
AcDbEntity
  8
LAYER0014
 62
     2
100
AcDbLine
 10
-557.9980231512327
 20
-362.2705714372569
 30
0.0
 11
-414.9980231512328
 21
-362.2705714372569
 31
0.0
  0
INSERT
  5
117
330
7C
100
AcDbEntity
  8
LAYER0014
 62
     2
100
AcDbBlockReference
  2
_OPEN30
 10
-557.9980231512327
 20
-362.2705714372569
 30
0.0
 41
9.175922197305043
 42
6.038325706448341
 50
180.0
  0
INSERT
  5
118
330
7C
100
AcDbEntity
  8
LAYER0014
 62
     2
100
AcDbBlockReference
  2
_OPEN30
 10
-414.9980231512328
 20
-362.2705714372569
 30
0.0
 41
9.175922197305043
 42
6.038325706448341
 50
360.0
  0
TEXT
  5
119
330
7C
100
AcDbEntity
  8
LAYER0014
 62
     2
100
AcDbText
 10
-500.8980231512327
 20
-359.8705714372569
 30
0.0
 40
12.0
  1
143
 41
0.8842105263157881
  7
DAVECTORFONT
 72
     5
 11
-472.0980231512328
 21
-359.8705714372569
 31
0.0
100
AcDbText
  0
ENDBLK
  5
7E
330
7C
100
AcDbEntity
  8
0
100
AcDbBlockEnd
  0
BLOCK
  5
80
330
7F
100
AcDbEntity
  8
0
100
AcDbBlockBegin
  2
DA_IMAGEDIMGROUP_13
 70
     0
 71
     0
 10
0.0
 20
0.0
 30
0.0
  3
DA_IMAGEDIMGROUP_13
  1

  0
LINE
  5
11A
330
7F
100
AcDbEntity
  8
LAYER0014
 62
     2
100
AcDbLine
 10
-414.9980231512328
 20
-368.2705714372569
 30
0.0
 11
-414.9980231512328
 21
-391.6705714372569
 31
0.0
  0
LINE
  5
11B
330
7F
100
AcDbEntity
  8
LAYER0014
 62
     2
100
AcDbLine
 10
-734.9980231512325
 20
-303.8705714372569
 30
0.0
 11
-734.9980231512325
 21
-391.6705714372569
 31
0.0
  0
LINE
  5
11C
330
7F
100
AcDbEntity
  8
LAYER0014
 62
     2
100
AcDbLine
 10
-734.9980231512325
 20
-389.2705714372569
 30
0.0
 11
-414.9980231512328
 21
-389.2705714372569
 31
0.0
  0
INSERT
  5
11D
330
7F
100
AcDbEntity
  8
LAYER0014
 62
     2
100
AcDbBlockReference
  2
_OPEN30
 10
-734.9980231512325
 20
-389.2705714372569
 30
0.0
 41
9.175922197305043
 42
6.038325706448341
 50
180.0
  0
INSERT
  5
11E
330
7F
100
AcDbEntity
  8
LAYER0014
 62
     2
100
AcDbBlockReference
  2
_OPEN30
 10
-414.9980231512328
 20
-389.2705714372569
 30
0.0
 41
9.175922197305043
 42
6.038325706448341
 50
360.0
  0
TEXT
  5
11F
330
7F
100
AcDbEntity
  8
LAYER0014
 62
     2
100
AcDbText
 10
-589.3980231512327
 20
-386.8705714372569
 30
0.0
 40
12.0
  1
320
 41
0.8842105263157881
  7
DAVECTORFONT
 72
     5
 11
-560.5980231512327
 21
-386.8705714372569
 31
0.0
100
AcDbText
  0
ENDBLK
  5
81
330
7F
100
AcDbEntity
  8
0
100
AcDbBlockEnd
  0
BLOCK
  5
83
330
82
100
AcDbEntity
  8
0
100
AcDbBlockBegin
  2
DA_IMAGEDIMGROUP_14
 70
     0
 71
     0
 10
0.0
 20
0.0
 30
0.0
  3
DA_IMAGEDIMGROUP_14
  1

  0
LINE
  5
120
330
82
100
AcDbEntity
  8
LAYER0014
 62
     2
100
AcDbLine
 10
-579.9980231512325
 20
-98.67057143725744
 30
0.0
 11
-579.9980231512325
 21
-72.87057143725743
 31
0.0
  0
LINE
  5
121
330
82
100
AcDbEntity
  8
LAYER0014
 62
     2
100
AcDbLine
 10
-557.9980231512327
 20
-98.67057143725738
 30
0.0
 11
-557.9980231512327
 21
-72.87057143725743
 31
0.0
  0
LINE
  5
122
330
82
100
AcDbEntity
  8
LAYER0014
 62
     2
100
AcDbLine
 10
-579.9980231512325
 20
-75.27057143725743
 30
0.0
 11
-557.9980231512327
 21
-75.27057143725743
 31
0.0
  0
LINE
  5
123
330
82
100
AcDbEntity
  8
LAYER0014
 62
     2
100
AcDbLine
 10
-547.4980231512327
 20
-75.27057143725743
 30
0.0
 11
-557.9980231512327
 21
-75.27057143725743
 31
0.0
  0
INSERT
  5
124
330
82
100
AcDbEntity
  8
LAYER0014
 62
     2
100
AcDbBlockReference
  2
_OPEN30
 10
-557.9980231512327
 20
-75.27057143725743
 30
0.0
 41
9.175922197305043
 42
6.038325706448341
 50
180.0
  0
LINE
  5
125
330
82
100
AcDbEntity
  8
LAYER0014
 62
     2
100
AcDbLine
 10
-590.4980231512325
 20
-75.27057143725743
 30
0.0
 11
-579.9980231512325
 21
-75.27057143725743
 31
0.0
  0
INSERT
  5
126
330
82
100
AcDbEntity
  8
LAYER0014
 62
     2
100
AcDbBlockReference
  2
_OPEN30
 10
-579.9980231512325
 20
-75.27057143725743
 30
0.0
 41
9.175922197305043
 42
6.038325706448341
 50
360.0
  0
TEXT
  5
127
330
82
100
AcDbEntity
  8
LAYER0014
 62
     2
100
AcDbText
 10
-578.5980231512325
 20
-72.87057143725743
 30
0.0
 40
12.0
  1
22
 41
0.9081081081081104
  7
DAVECTORFONT
 72
     5
 11
-559.3980231512325
 21
-72.87057143725743
 31
0.0
100
AcDbText
  0
ENDBLK
  5
84
330
82
100
AcDbEntity
  8
0
100
AcDbBlockEnd
  0
BLOCK
  5
86
330
85
100
AcDbEntity
  8
0
100
AcDbBlockBegin
  2
DA_IMAGEDIMGROUP_15
 70
     0
 71
     0
 10
0.0
 20
0.0
 30
0.0
  3
DA_IMAGEDIMGROUP_15
  1

  0
LINE
  5
128
330
85
100
AcDbEntity
  8
LAYER0014
 62
     2
100
AcDbLine
 10
-734.9980231512325
 20
-395.2705714372569
 30
0.0
 11
-734.9980231512325
 21
-418.6705714372569
 31
0.0
  0
LINE
  5
129
330
85
100
AcDbEntity
  8
LAYER0014
 62
     2
100
AcDbLine
 10
-704.9980231512325
 20
-310.6695807314897
 30
0.0
 11
-704.9980231512325
 21
-418.6705714372569
 31
0.0
  0
LINE
  5
12A
330
85
100
AcDbEntity
  8
LAYER0014
 62
     2
100
AcDbLine
 10
55.00197684876753
 20
-312.1735950044601
 30
0.0
 11
55.00197684876753
 21
-418.6705714372569
 31
0.0
  0
LINE
  5
12B
330
85
100
AcDbEntity
  8
LAYER0014
 62
     2
100
AcDbLine
 10
85.00197684876753
 20
-303.8705714372569
 30
0.0
 11
85.00197684876753
 21
-418.6705714372569
 31
0.0
  0
LINE
  5
12C
330
85
100
AcDbEntity
  8
LAYER0014
 62
     2
100
AcDbLine
 10
-734.9980231512325
 20
-416.2705714372569
 30
0.0
 11
-704.9980231512325
 21
-416.2705714372569
 31
0.0
  0
INSERT
  5
12D
330
85
100
AcDbEntity
  8
LAYER0014
 62
     2
100
AcDbBlockReference
  2
_OPEN30
 10
-734.9980231512325
 20
-416.2705714372569
 30
0.0
 41
9.175922197305043
 42
6.038325706448341
 50
180.0
  0
INSERT
  5
12E
330
85
100
AcDbEntity
  8
LAYER0014
 62
     2
100
AcDbBlockReference
  2
_OPEN30
 10
-704.9980231512325
 20
-416.2705714372569
 30
0.0
 41
9.175922197305043
 42
6.038325706448341
 50
360.0
  0
LINE
  5
12F
330
85
100
AcDbEntity
  8
LAYER0014
 62
     2
100
AcDbLine
 10
-704.9980231512325
 20
-416.2705714372569
 30
0.0
 11
55.00197684876753
 21
-416.2705714372569
 31
0.0
  0
INSERT
  5
130
330
85
100
AcDbEntity
  8
LAYER0014
 62
     2
100
AcDbBlockReference
  2
_OPEN30
 10
-704.9980231512325
 20
-416.2705714372569
 30
0.0
 41
9.175922197305043
 42
6.038325706448341
 50
180.0
  0
INSERT
  5
131
330
85
100
AcDbEntity
  8
LAYER0014
 62
     2
100
AcDbBlockReference
  2
_OPEN30
 10
55.00197684876753
 20
-416.2705714372569
 30
0.0
 41
9.175922197305043
 42
6.038325706448341
 50
360.0
  0
LINE
  5
132
330
85
100
AcDbEntity
  8
LAYER0014
 62
     2
100
AcDbLine
 10
55.00197684876753
 20
-416.2705714372569
 30
0.0
 11
85.00197684876753
 21
-416.2705714372569
 31
0.0
  0
INSERT
  5
133
330
85
100
AcDbEntity
  8
LAYER0014
 62
     2
100
AcDbBlockReference
  2
_OPEN30
 10
55.00197684876753
 20
-416.2705714372569
 30
0.0
 41
9.175922197305043
 42
6.038325706448341
 50
180.0
  0
INSERT
  5
134
330
85
100
AcDbEntity
  8
LAYER0014
 62
     2
100
AcDbBlockReference
  2
_OPEN30
 10
85.00197684876753
 20
-416.2705714372569
 30
0.0
 41
9.175922197305043
 42
6.038325706448341
 50
360.0
  0
TEXT
  5
135
330
85
100
AcDbEntity
  8
LAYER0014
 62
     2
100
AcDbText
 10
-729.5980231512325
 20
-413.8705714372569
 30
0.0
 40
12.0
  1
30
 41
0.9081081081081104
  7
DAVECTORFONT
 72
     5
 11
-710.3980231512325
 21
-413.8705714372569
 31
0.0
100
AcDbText
  0
TEXT
  5
136
330
85
100
AcDbEntity
  8
LAYER0014
 62
     2
100
AcDbText
 10
-339.3980231512325
 20
-413.8705714372569
 30
0.0
 40
12.0
  1
760
 41
0.8842105263157881
  7
DAVECTORFONT
 72
     5
 11
-310.5980231512326
 21
-413.8705714372569
 31
0.0
100
AcDbText
  0
TEXT
  5
137
330
85
100
AcDbEntity
  8
LAYER0014
 62
     2
100
AcDbText
 10
60.40197684876753
 20
-413.8705714372569
 30
0.0
 40
12.0
  1
30
 41
0.9081081081081081
  7
DAVECTORFONT
 72
     5
 11
79.60197684876752
 21
-413.8705714372569
 31
0.0
100
AcDbText
  0
ENDBLK
  5
87
330
85
100
AcDbEntity
  8
0
100
AcDbBlockEnd
  0
BLOCK
  5
89
330
88
100
AcDbEntity
  8
0
100
AcDbBlockBegin
  2
DA_IMAGEDIMGROUP_16
 70
     0
 71
     0
 10
0.0
 20
0.0
 30
0.0
  3
DA_IMAGEDIMGROUP_16
  1

  0
LINE
  5
138
330
88
100
AcDbEntity
  8
LAYER0014
 62
     2
100
AcDbLine
 10
-734.9980231512325
 20
-422.2705714372569
 30
0.0
 11
-734.9980231512325
 21
-445.6705714372569
 31
0.0
  0
LINE
  5
139
330
88
100
AcDbEntity
  8
LAYER0014
 62
     2
100
AcDbLine
 10
85.00197684876753
 20
-422.2705714372569
 30
0.0
 11
85.00197684876753
 21
-445.6705714372569
 31
0.0
  0
LINE
  5
13A
330
88
100
AcDbEntity
  8
LAYER0014
 62
     2
100
AcDbLine
 10
-734.9980231512325
 20
-443.2705714372569
 30
0.0
 11
85.00197684876753
 21
-443.2705714372569
 31
0.0
  0
INSERT
  5
13B
330
88
100
AcDbEntity
  8
LAYER0014
 62
     2
100
AcDbBlockReference
  2
_OPEN30
 10
-734.9980231512325
 20
-443.2705714372569
 30
0.0
 41
9.175922197305043
 42
6.038325706448341
 50
180.0
  0
INSERT
  5
13C
330
88
100
AcDbEntity
  8
LAYER0014
 62
     2
100
AcDbBlockReference
  2
_OPEN30
 10
85.00197684876753
 20
-443.2705714372569
 30
0.0
 41
9.175922197305043
 42
6.038325706448341
 50
360.0
  0
TEXT
  5
13D
330
88
100
AcDbEntity
  8
LAYER0014
 62
     2
100
AcDbText
 10
-339.3980231512325
 20
-440.8705714372569
 30
0.0
 40
12.0
  1
820
 41
0.8842105263157881
  7
DAVECTORFONT
 72
     5
 11
-310.5980231512326
 21
-440.8705714372569
 31
0.0
100
AcDbText
  0
ENDBLK
  5
8A
330
88
100
AcDbEntity
  8
0
100
AcDbBlockEnd
  0
BLOCK
  5
8C
330
8B
100
AcDbEntity
  8
0
100
AcDbBlockBegin
  2
DA_IMAGEDIMGROUP_17
 70
     0
 71
     0
 10
0.0
 20
0.0
 30
0.0
  3
DA_IMAGEDIMGROUP_17
  1

  0
LINE
  5
13E
330
8B
100
AcDbEntity
  8
LAYER0014
 62
     2
100
AcDbLine
 10
-734.9980231512325
 20
-48.27057143725743
 30
0.0
 11
-557.9980231512327
 21
-48.27057143725743
 31
0.0
  0
INSERT
  5
13F
330
8B
100
AcDbEntity
  8
LAYER0014
 62
     2
100
AcDbBlockReference
  2
_OPEN30
 10
-734.9980231512325
 20
-48.27057143725743
 30
0.0
 41
9.175922197305043
 42
6.038325706448341
 50
180.0
  0
INSERT
  5
140
330
8B
100
AcDbEntity
  8
LAYER0014
 62
     2
100
AcDbBlockReference
  2
_OPEN30
 10
-557.9980231512327
 20
-48.27057143725743
 30
0.0
 41
9.175922197305043
 42
6.038325706448341
 50
360.0
  0
LINE
  5
141
330
8B
100
AcDbEntity
  8
LAYER0014
 62
     2
100
AcDbLine
 10
-557.9980231512327
 20
-48.27057143725743
 30
0.0
 11
-257.9980231512326
 21
-48.27057143725743
 31
0.0
  0
INSERT
  5
142
330
8B
100
AcDbEntity
  8
LAYER0014
 62
     2
100
AcDbBlockReference
  2
_OPEN30
 10
-557.9980231512327
 20
-48.27057143725743
 30
0.0
 41
9.175922197305043
 42
6.038325706448341
 50
180.0
  0
INSERT
  5
143
330
8B
100
AcDbEntity
  8
LAYER0014
 62
     2
100
AcDbBlockReference
  2
_OPEN30
 10
-257.9980231512326
 20
-48.27057143725743
 30
0.0
 41
9.175922197305043
 42
6.038325706448341
 50
360.0
  0
LINE
  5
144
330
8B
100
AcDbEntity
  8
LAYER0014
 62
     2
100
AcDbLine
 10
-257.9980231512326
 20
-48.27057143725743
 30
0.0
 11
267.0019768487676
 21
-48.27057143725743
 31
0.0
  0
INSERT
  5
145
330
8B
100
AcDbEntity
  8
LAYER0014
 62
     2
100
AcDbBlockReference
  2
_OPEN30
 10
-257.9980231512326
 20
-48.27057143725743
 30
0.0
 41
9.175922197305043
 42
6.038325706448341
 50
180.0
  0
INSERT
  5
146
330
8B
100
AcDbEntity
  8
LAYER0014
 62
     2
100
AcDbBlockReference
  2
_OPEN30
 10
267.0019768487676
 20
-48.27057143725743
 30
0.0
 41
9.175922197305043
 42
6.038325706448341
 50
360.0
  0
LINE
  5
147
330
8B
100
AcDbEntity
  8
LAYER0014
 62
     2
100
AcDbLine
 10
267.0019768487676
 20
-48.27057143725743
 30
0.0
 11
365.0019768487678
 21
-48.27057143725743
 31
0.0
  0
INSERT
  5
148
330
8B
100
AcDbEntity
  8
LAYER0014
 62
     2
100
AcDbBlockReference
  2
_OPEN30
 10
267.0019768487676
 20
-48.27057143725743
 30
0.0
 41
9.175922197305043
 42
6.038325706448341
 50
180.0
  0
INSERT
  5
149
330
8B
100
AcDbEntity
  8
LAYER0014
 62
     2
100
AcDbBlockReference
  2
_OPEN30
 10
365.0019768487678
 20
-48.27057143725743
 30
0.0
 41
9.175922197305043
 42
6.038325706448341
 50
360.0
  0
LINE
  5
14A
330
8B
100
AcDbEntity
  8
LAYER0014
 62
     2
100
AcDbLine
 10
-734.9980231512325
 20
-266.6705714372569
 30
0.0
 11
-734.9980231512325
 21
-45.87057143725744
 31
0.0
  0
LINE
  5
14B
330
8B
100
AcDbEntity
  8
LAYER0014
 62
     2
100
AcDbLine
 10
-557.9980231512327
 20
-69.27057143725743
 30
0.0
 11
-557.9980231512327
 21
-45.87057143725743
 31
0.0
  0
LINE
  5
14C
330
8B
100
AcDbEntity
  8
LAYER0014
 62
     2
100
AcDbLine
 10
-257.9980231512326
 20
-98.67057143725687
 30
0.0
 11
-257.9980231512326
 21
-45.87057143725743
 31
0.0
  0
LINE
  5
14D
330
8B
100
AcDbEntity
  8
LAYER0014
 62
     2
100
AcDbLine
 10
267.0019768487676
 20
-142.4205714372569
 30
0.0
 11
267.0019768487676
 21
-45.87057143725744
 31
0.0
  0
LINE
  5
14E
330
8B
100
AcDbEntity
  8
LAYER0014
 62
     2
100
AcDbLine
 10
365.0019768487678
 20
-392.6705714372567
 30
0.0
 11
365.0019768487678
 21
-45.87057143725741
 31
0.0
  0
TEXT
  5
14F
330
8B
100
AcDbEntity
  8
LAYER0014
 62
     2
100
AcDbText
 10
-660.8980231512326
 20
-45.87057143725743
 30
0.0
 40
12.0
  1
177
 41
0.8842105263157881
  7
DAVECTORFONT
 72
     5
 11
-632.0980231512326
 21
-45.87057143725743
 31
0.0
100
AcDbText
  0
TEXT
  5
150
330
8B
100
AcDbEntity
  8
LAYER0014
 62
     2
100
AcDbText
 10
-431.9980231512326
 20
-45.87057143725743
 30
0.0
 40
12.0
  1
0～340
 41
0.8842105263157895
  7
DAVECTORFONT
 72
     5
 11
-383.9980231512326
 21
-45.87057143725743
 31
0.0
100
AcDbText
  0
TEXT
  5
151
330
8B
100
AcDbEntity
  8
LAYER0014
 62
     2
100
AcDbText
 10
-9.898023151232472
 20
-45.87057143725743
 30
0.0
 40
12.0
  1
525
 41
0.8842105263157897
  7
DAVECTORFONT
 72
     5
 11
18.90197684876753
 21
-45.87057143725743
 31
0.0
100
AcDbText
  0
TEXT
  5
152
330
8B
100
AcDbEntity
  8
LAYER0014
 62
     2
100
AcDbText
 10
306.4019768487676
 20
-45.87057143725743
 30
0.0
 40
12.0
  1
98
 41
0.9081081081081104
  7
DAVECTORFONT
 72
     5
 11
325.6019768487677
 21
-45.87057143725743
 31
0.0
100
AcDbText
  0
ENDBLK
  5
8D
330
8B
100
AcDbEntity
  8
0
100
AcDbBlockEnd
  0
BLOCK
  5
8F
330
8E
100
AcDbEntity
  8
0
100
AcDbBlockBegin
  2
DA_IMAGEDIMGROUP_18
 70
     0
 71
     0
 10
0.0
 20
0.0
 30
0.0
  3
DA_IMAGEDIMGROUP_18
  1

  0
LINE
  5
153
330
8E
100
AcDbEntity
  8
LAYER0014
 62
     2
100
AcDbLine
 10
-734.9980231512325
 20
-449.2705714372569
 30
0.0
 11
-734.9980231512325
 21
-472.6705714372569
 31
0.0
  0
LINE
  5
154
330
8E
100
AcDbEntity
  8
LAYER0014
 62
     2
100
AcDbLine
 10
365.0019768487678
 20
-419.8705714372568
 30
0.0
 11
365.0019768487678
 21
-472.6705714372569
 31
0.0
  0
LINE
  5
155
330
8E
100
AcDbEntity
  8
LAYER0014
 62
     2
100
AcDbLine
 10
-734.9980231512325
 20
-470.2705714372569
 30
0.0
 11
365.0019768487678
 21
-470.2705714372569
 31
0.0
  0
INSERT
  5
156
330
8E
100
AcDbEntity
  8
LAYER0014
 62
     2
100
AcDbBlockReference
  2
_OPEN30
 10
-734.9980231512325
 20
-470.2705714372569
 30
0.0
 41
9.175922197305043
 42
6.038325706448341
 50
180.0
  0
INSERT
  5
157
330
8E
100
AcDbEntity
  8
LAYER0014
 62
     2
100
AcDbBlockReference
  2
_OPEN30
 10
365.0019768487678
 20
-470.2705714372569
 30
0.0
 41
9.175922197305043
 42
6.038325706448341
 50
360.0
  0
TEXT
  5
158
330
8E
100
AcDbEntity
  8
LAYER0014
 62
     2
100
AcDbText
 10
-223.3980231512324
 20
-467.8705714372569
 30
0.0
 40
12.0
  1
MAX:1140
 41
0.9020134228187922
  7
DAVECTORFONT
 72
     5
 11
-146.5980231512324
 21
-467.8705714372569
 31
0.0
100
AcDbText
  0
ENDBLK
  5
90
330
8E
100
AcDbEntity
  8
0
100
AcDbBlockEnd
  0
BLOCK
  5
92
330
91
100
AcDbEntity
  8
0
100
AcDbBlockBegin
  2
DA_IMAGEDIMGROUP_19
 70
     0
 71
     0
 10
0.0
 20
0.0
 30
0.0
  3
DA_IMAGEDIMGROUP_19
  1

  0
LINE
  5
159
330
91
100
AcDbEntity
  8
LAYER0014
 62
     2
100
AcDbLine
 10
-402.3980231512327
 20
-308.2705714372569
 30
0.0
 11
-368.7191595329274
 21
-308.2705714372569
 31
0.0
  0
LINE
  5
15A
330
91
100
AcDbEntity
  8
LAYER0014
 62
     2
100
AcDbLine
 10
-371.1191595329274
 20
-308.2705714372569
 30
0.0
 11
-371.1191595329274
 21
-300.2705714372569
 31
0.0
  0
LINE
  5
15B
330
91
100
AcDbEntity
  8
LAYER0014
 62
     2
100
AcDbLine
 10
-554.3980231512326
 20
-102.2705714372574
 30
0.0
 11
-368.7191595329274
 21
-102.2705714372574
 31
0.0
  0
LINE
  5
15C
330
91
100
AcDbEntity
  8
LAYER0014
 62
     2
100
AcDbLine
 10
-371.1191595329274
 20
-326.7338314372569
 30
0.0
 11
-371.1191595329274
 21
-308.2705714372569
 31
0.0
  0
INSERT
  5
15D
330
91
100
AcDbEntity
  8
LAYER0014
 62
     2
100
AcDbBlockReference
  2
_OPEN30
 10
-371.1191595329274
 20
-308.2705714372569
 30
0.0
 41
9.175922197305043
 42
6.038325706448341
 50
90.0
  0
LINE
  5
15E
330
91
100
AcDbEntity
  8
LAYER0014
 62
     2
100
AcDbLine
 10
-371.1191595329274
 20
-300.2705714372569
 30
0.0
 11
-371.1191595329274
 21
-182.2705714372569
 31
0.0
  0
INSERT
  5
15F
330
91
100
AcDbEntity
  8
LAYER0014
 62
     2
100
AcDbBlockReference
  2
_OPEN30
 10
-371.1191595329274
 20
-300.2705714372569
 30
0.0
 41
9.175922197305043
 42
6.038325706448341
 50
270.0
  0
INSERT
  5
160
330
91
100
AcDbEntity
  8
LAYER0014
 62
     2
100
AcDbBlockReference
  2
_OPEN30
 10
-371.1191595329274
 20
-182.2705714372569
 30
0.0
 41
9.175922197305043
 42
6.038325706448341
 50
90.0
  0
LINE
  5
161
330
91
100
AcDbEntity
  8
LAYER0014
 62
     2
100
AcDbLine
 10
-371.1191595329274
 20
-182.2705714372569
 30
0.0
 11
-371.1191595329274
 21
-102.2705714372574
 31
0.0
  0
INSERT
  5
162
330
91
100
AcDbEntity
  8
LAYER0014
 62
     2
100
AcDbBlockReference
  2
_OPEN30
 10
-371.1191595329274
 20
-182.2705714372569
 30
0.0
 41
9.175922197305043
 42
6.038325706448341
 50
270.0
  0
INSERT
  5
163
330
91
100
AcDbEntity
  8
LAYER0014
 62
     2
100
AcDbBlockReference
  2
_OPEN30
 10
-371.1191595329274
 20
-102.2705714372574
 30
0.0
 41
9.175922197305043
 42
6.038325706448341
 50
90.0
  0
TEXT
  5
164
330
91
100
AcDbEntity
  8
LAYER0014
 62
     2
100
AcDbText
 10
-373.5191595329274
 20
-326.7338314372569
 30
0.0
 40
12.0
  1
8
 50
90.0
 41
0.9882352941176494
  7
DAVECTORFONT
 72
     5
 11
-373.5191595329274
 21
-317.1338314372568
 31
0.0
100
AcDbText
  0
TEXT
  5
165
330
91
100
AcDbEntity
  8
LAYER0014
 62
     2
100
AcDbText
 10
-373.5191595329274
 20
-265.2705714372568
 30
0.0
 40
12.0
  1
118
 50
90.0
 41
0.8842105263157872
  7
DAVECTORFONT
 72
     5
 11
-373.5191595329274
 21
-236.4705714372568
 31
0.0
100
AcDbText
  0
TEXT
  5
166
330
91
100
AcDbEntity
  8
LAYER0014
 62
     2
100
AcDbText
 10
-373.5191595329274
 20
-151.8705714372572
 30
0.0
 40
12.0
  1
80
 50
90.0
 41
0.9081081081081104
  7
DAVECTORFONT
 72
     5
 11
-373.5191595329274
 21
-132.6705714372571
 31
0.0
100
AcDbText
  0
ENDBLK
  5
93
330
91
100
AcDbEntity
  8
0
100
AcDbBlockEnd
  0
BLOCK
  5
95
330
94
100
AcDbEntity
  8
0
100
AcDbBlockBegin
  2
DA_IMAGEDIMGROUP_20
 70
     0
 71
     0
 10
0.0
 20
0.0
 30
0.0
  3
DA_IMAGEDIMGROUP_20
  1

  0
LINE
  5
167
330
94
100
AcDbEntity
  8
LAYER0014
 62
     2
100
AcDbLine
 10
-738.5980231512326
 20
-300.2705714372569
 30
0.0
 11
-764.3980231512326
 21
-300.2705714372569
 31
0.0
  0
LINE
  5
168
330
94
100
AcDbEntity
  8
LAYER0014
 62
     2
100
AcDbLine
 10
-583.5980231512324
 20
-102.2705714372574
 30
0.0
 11
-764.3980231512326
 21
-102.2705714372574
 31
0.0
  0
LINE
  5
169
330
94
100
AcDbEntity
  8
LAYER0014
 62
     2
100
AcDbLine
 10
-761.9980231512325
 20
-300.2705714372569
 30
0.0
 11
-761.9980231512325
 21
-102.2705714372574
 31
0.0
  0
INSERT
  5
16A
330
94
100
AcDbEntity
  8
LAYER0014
 62
     2
100
AcDbBlockReference
  2
_OPEN30
 10
-761.9980231512325
 20
-300.2705714372569
 30
0.0
 41
9.175922197305043
 42
6.038325706448341
 50
270.0
  0
INSERT
  5
16B
330
94
100
AcDbEntity
  8
LAYER0014
 62
     2
100
AcDbBlockReference
  2
_OPEN30
 10
-761.9980231512325
 20
-102.2705714372574
 30
0.0
 41
9.175922197305043
 42
6.038325706448341
 50
90.0
  0
TEXT
  5
16C
330
94
100
AcDbEntity
  8
LAYER0014
 62
     2
100
AcDbText
 10
-764.3980231512326
 20
-215.6705714372571
 30
0.0
 40
12.0
  1
198
 50
90.0
 41
0.8842105263157881
  7
DAVECTORFONT
 72
     5
 11
-764.3980231512326
 21
-186.8705714372572
 31
0.0
100
AcDbText
  0
ENDBLK
  5
96
330
94
100
AcDbEntity
  8
0
100
AcDbBlockEnd
  0
BLOCK
  5
98
330
97
100
AcDbEntity
  8
0
100
AcDbBlockBegin
  2
DA_IMAGEDIMGROUP_21
 70
     0
 71
     0
 10
0.0
 20
0.0
 30
0.0
  3
DA_IMAGEDIMGROUP_21
  1

  0
LINE
  5
16D
330
97
100
AcDbEntity
  8
LAYER0014
 62
     2
100
AcDbLine
 10
88.60197684876752
 20
-300.2705714372569
 30
0.0
 11
339.4019768487677
 21
-300.2705714372569
 31
0.0
  0
LINE
  5
16E
330
97
100
AcDbEntity
  8
LAYER0014
 62
     2
100
AcDbLine
 10
270.6019768487676
 20
-156.2705714372569
 30
0.0
 11
339.4019768487677
 21
-156.2705714372569
 31
0.0
  0
LINE
  5
16F
330
97
100
AcDbEntity
  8
LAYER0014
 62
     2
100
AcDbLine
 10
337.0019768487677
 20
-300.2705714372569
 30
0.0
 11
337.0019768487677
 21
-156.2705714372569
 31
0.0
  0
INSERT
  5
170
330
97
100
AcDbEntity
  8
LAYER0014
 62
     2
100
AcDbBlockReference
  2
_OPEN30
 10
337.0019768487677
 20
-300.2705714372569
 30
0.0
 41
9.175922197305043
 42
6.038325706448341
 50
270.0
  0
INSERT
  5
171
330
97
100
AcDbEntity
  8
LAYER0014
 62
     2
100
AcDbBlockReference
  2
_OPEN30
 10
337.0019768487677
 20
-156.2705714372569
 30
0.0
 41
9.175922197305043
 42
6.038325706448341
 50
90.0
  0
TEXT
  5
172
330
97
100
AcDbEntity
  8
LAYER0014
 62
     2
100
AcDbText
 10
334.6019768487677
 20
-242.6705714372568
 30
0.0
 40
12.0
  1
144
 50
90.0
 41
0.8689655172413781
  7
DAVECTORFONT
 72
     5
 11
334.6019768487677
 21
-213.8705714372569
 31
0.0
100
AcDbText
  0
ENDBLK
  5
99
330
97
100
AcDbEntity
  8
0
100
AcDbBlockEnd
  0
BLOCK
  5
9B
330
9A
100
AcDbEntity
  8
0
100
AcDbBlockBegin
  2
DA_IMAGEDIMGROUP_22
 70
     0
 71
     0
 10
0.0
 20
0.0
 30
0.0
  3
DA_IMAGEDIMGROUP_22
  1

  0
LINE
  5
173
330
9A
100
AcDbEntity
  8
LAYER0014
 62
     2
100
AcDbLine
 10
343.0019768487677
 20
-156.2705714372569
 30
0.0
 11
393.4019768487677
 21
-156.2705714372569
 31
0.0
  0
LINE
  5
174
330
9A
100
AcDbEntity
  8
LAYER0014
 62
     2
100
AcDbLine
 10
367.6019768487678
 20
-406.2705714372568
 30
0.0
 11
393.4019768487677
 21
-406.2705714372568
 31
0.0
  0
LINE
  5
175
330
9A
100
AcDbEntity
  8
LAYER0014
 62
     2
100
AcDbLine
 10
391.0019768487677
 20
-406.2705714372568
 30
0.0
 11
391.0019768487677
 21
-156.2705714372569
 31
0.0
  0
INSERT
  5
176
330
9A
100
AcDbEntity
  8
LAYER0014
 62
     2
100
AcDbBlockReference
  2
_OPEN30
 10
391.0019768487677
 20
-406.2705714372568
 30
0.0
 41
9.175922197305043
 42
6.038325706448341
 50
270.0
  0
INSERT
  5
177
330
9A
100
AcDbEntity
  8
LAYER0014
 62
     2
100
AcDbBlockReference
  2
_OPEN30
 10
391.0019768487677
 20
-156.2705714372569
 30
0.0
 41
9.175922197305043
 42
6.038325706448341
 50
90.0
  0
TEXT
  5
178
330
9A
100
AcDbEntity
  8
LAYER0014
 62
     2
100
AcDbText
 10
388.6019768487677
 20
-295.6705714372569
 30
0.0
 40
12.0
  1
250
 50
90.0
 41
0.8842105263157881
  7
DAVECTORFONT
 72
     5
 11
388.6019768487677
 21
-266.8705714372569
 31
0.0
100
AcDbText
  0
ENDBLK
  5
9C
330
9A
100
AcDbEntity
  8
0
100
AcDbBlockEnd
  0
BLOCK
  5
9E
330
9D
100
AcDbEntity
  8
0
100
AcDbBlockBegin
  2
DA_IMAGEDIMGROUP_23
 70
     0
 71
     0
 10
0.0
 20
0.0
 30
0.0
  3
DA_IMAGEDIMGROUP_23
  1

  0
LINE
  5
179
330
9D
100
AcDbEntity
  8
LAYER0014
 62
     2
100
AcDbLine
 10
519.0300914130069
 20
-362.2705714372568
 30
0.0
 11
750.0300914130069
 21
-362.2705714372568
 31
0.0
  0
INSERT
  5
17A
330
9D
100
AcDbEntity
  8
LAYER0014
 62
     2
100
AcDbBlockReference
  2
_OPEN30
 10
519.0300914130069
 20
-362.2705714372568
 30
0.0
 41
9.175922197305043
 42
6.038325706448341
 50
180.0
  0
INSERT
  5
17B
330
9D
100
AcDbEntity
  8
LAYER0014
 62
     2
100
AcDbBlockReference
  2
_OPEN30
 10
750.0300914130069
 20
-362.2705714372568
 30
0.0
 41
9.175922197305043
 42
6.038325706448341
 50
360.0
  0
LINE
  5
17C
330
9D
100
AcDbEntity
  8
LAYER0014
 62
     2
100
AcDbLine
 10
519.0300914130069
 20
-311.8705714372568
 30
0.0
 11
519.0300914130069
 21
-364.6705714372567
 31
0.0
  0
LINE
  5
17D
330
9D
100
AcDbEntity
  8
LAYER0014
 62
     2
100
AcDbLine
 10
750.0300914130069
 20
-311.8705714372568
 30
0.0
 11
750.0300914130069
 21
-364.6705714372567
 31
0.0
  0
TEXT
  5
17E
330
9D
100
AcDbEntity
  8
LAYER0014
 62
     2
100
AcDbText
 10
620.1300914130069
 20
-359.8705714372568
 30
0.0
 40
12.0
  1
231
 41
0.9882352941176457
  7
DAVECTORFONT
 72
     5
 11
648.9300914130068
 21
-359.8705714372568
 31
0.0
100
AcDbText
  0
ENDBLK
  5
9F
330
9D
100
AcDbEntity
  8
0
100
AcDbBlockEnd
  0
BLOCK
  5
A1
330
A0
100
AcDbEntity
  8
0
100
AcDbBlockBegin
  2
GROUP_5
 70
     0
 71
     0
 10
0.0
 20
0.0
 30
0.0
  3
GROUP_5
  1

  0
LINE
  5
17F
330
A0
100
AcDbEntity
  8
0
  6
CENTER
 62
     2
100
AcDbLine
 10
488.457966101695
 20
492.6543264942017
 30
0.0
 11
446.697966101695
 21
492.6543264942017
 31
0.0
  0
LINE
  5
180
330
A0
100
AcDbEntity
  8
0
  6
CENTER
 62
     2
100
AcDbLine
 10
467.577966101695
 20
513.5343264942018
 30
0.0
 11
467.577966101695
 21
471.7743264942017
 31
0.0
  0
ENDBLK
  5
A2
330
A0
100
AcDbEntity
  8
0
100
AcDbBlockEnd
  0
BLOCK
  5
A4
330
A3
100
AcDbEntity
  8
0
100
AcDbBlockBegin
  2
DA_IMAGEDIMGROUP_24
 70
     0
 71
     0
 10
0.0
 20
0.0
 30
0.0
  3
DA_IMAGEDIMGROUP_24
  1

  0
LINE
  5
181
330
A3
100
AcDbEntity
  8
LAYER0014
 62
     2
100
AcDbLine
 10
527.5779661016952
 20
471.0543264942017
 30
0.0
 11
527.5779661016952
 21
445.2543264942017
 31
0.0
  0
LINE
  5
182
330
A3
100
AcDbEntity
  8
LAYER0014
 62
     2
100
AcDbLine
 10
547.5779661016952
 20
476.0543264942017
 30
0.0
 11
547.5779661016952
 21
445.2543264942017
 31
0.0
  0
LINE
  5
183
330
A3
100
AcDbEntity
  8
LAYER0014
 62
     2
100
AcDbLine
 10
527.5779661016952
 20
447.6543264942017
 30
0.0
 11
547.5779661016952
 21
447.6543264942017
 31
0.0
  0
LINE
  5
184
330
A3
100
AcDbEntity
  8
LAYER0014
 62
     2
100
AcDbLine
 10
558.0779661016952
 20
447.6543264942017
 30
0.0
 11
547.5779661016952
 21
447.6543264942017
 31
0.0
  0
INSERT
  5
185
330
A3
100
AcDbEntity
  8
LAYER0014
 62
     2
100
AcDbBlockReference
  2
_OPEN30
 10
547.5779661016952
 20
447.6543264942017
 30
0.0
 41
9.175922197305043
 42
6.038325706448341
 50
180.0
  0
LINE
  5
186
330
A3
100
AcDbEntity
  8
LAYER0014
 62
     2
100
AcDbLine
 10
517.0779661016952
 20
447.6543264942017
 30
0.0
 11
527.5779661016952
 21
447.6543264942017
 31
0.0
  0
INSERT
  5
187
330
A3
100
AcDbEntity
  8
LAYER0014
 62
     2
100
AcDbBlockReference
  2
_OPEN30
 10
527.5779661016952
 20
447.6543264942017
 30
0.0
 41
9.175922197305043
 42
6.038325706448341
 50
360.0
  0
TEXT
  5
188
330
A3
100
AcDbEntity
  8
LAYER0014
 62
     2
100
AcDbText
 10
527.9779661016952
 20
450.0543264942018
 30
0.0
 40
12.0
  1
20
 41
0.9081081081081104
  7
DAVECTORFONT
 72
     5
 11
547.1779661016952
 21
450.0543264942018
 31
0.0
100
AcDbText
  0
ENDBLK
  5
A5
330
A3
100
AcDbEntity
  8
0
100
AcDbBlockEnd
  0
BLOCK
  5
A7
330
A6
100
AcDbEntity
  8
0
100
AcDbBlockBegin
  2
DA_IMAGEDIMGROUP_25
 70
     0
 71
     0
 10
0.0
 20
0.0
 30
0.0
  3
DA_IMAGEDIMGROUP_25
  1

  0
LINE
  5
189
330
A6
100
AcDbEntity
  8
LAYER0014
 62
     2
100
AcDbLine
 10
757.5779661016953
 20
476.8043264942018
 30
0.0
 11
757.5779661016953
 21
445.2543264942017
 31
0.0
  0
LINE
  5
18A
330
A6
100
AcDbEntity
  8
LAYER0014
 62
     2
100
AcDbLine
 10
782.5779661016952
 20
478.8043264942018
 30
0.0
 11
782.5779661016952
 21
445.2543264942017
 31
0.0
  0
LINE
  5
18B
330
A6
100
AcDbEntity
  8
LAYER0014
 62
     2
100
AcDbLine
 10
757.5779661016953
 20
447.6543264942017
 30
0.0
 11
782.5779661016952
 21
447.6543264942017
 31
0.0
  0
LINE
  5
18C
330
A6
100
AcDbEntity
  8
LAYER0014
 62
     2
100
AcDbLine
 10
793.0779661016952
 20
447.6543264942017
 30
0.0
 11
782.5779661016952
 21
447.6543264942017
 31
0.0
  0
INSERT
  5
18D
330
A6
100
AcDbEntity
  8
LAYER0014
 62
     2
100
AcDbBlockReference
  2
_OPEN30
 10
782.5779661016952
 20
447.6543264942017
 30
0.0
 41
9.175922197305043
 42
6.038325706448341
 50
180.0
  0
LINE
  5
18E
330
A6
100
AcDbEntity
  8
LAYER0014
 62
     2
100
AcDbLine
 10
747.0779661016953
 20
447.6543264942017
 30
0.0
 11
757.5779661016953
 21
447.6543264942017
 31
0.0
  0
INSERT
  5
18F
330
A6
100
AcDbEntity
  8
LAYER0014
 62
     2
100
AcDbBlockReference
  2
_OPEN30
 10
757.5779661016953
 20
447.6543264942017
 30
0.0
 41
9.175922197305043
 42
6.038325706448341
 50
360.0
  0
TEXT
  5
190
330
A6
100
AcDbEntity
  8
LAYER0014
 62
     2
100
AcDbText
 10
760.4779661016952
 20
450.0543264942018
 30
0.0
 40
12.0
  1
25
 41
0.9081081081081104
  7
DAVECTORFONT
 72
     5
 11
779.6779661016952
 21
450.0543264942018
 31
0.0
100
AcDbText
  0
ENDBLK
  5
A8
330
A6
100
AcDbEntity
  8
0
100
AcDbBlockEnd
  0
BLOCK
  5
AA
330
A9
100
AcDbEntity
  8
0
100
AcDbBlockBegin
  2
DA_IMAGEDIMGROUP_26
 70
     0
 71
     0
 10
0.0
 20
0.0
 30
0.0
  3
DA_IMAGEDIMGROUP_26
  1

  0
LINE
  5
191
330
A9
100
AcDbEntity
  8
LAYER0014
 62
     2
100
AcDbLine
 10
527.5779661016952
 20
441.6543264942017
 30
0.0
 11
527.5779661016952
 21
418.2543264942017
 31
0.0
  0
LINE
  5
192
330
A9
100
AcDbEntity
  8
LAYER0014
 62
     2
100
AcDbLine
 10
782.5779661016952
 20
441.6543264942017
 30
0.0
 11
782.5779661016952
 21
418.2543264942017
 31
0.0
  0
LINE
  5
193
330
A9
100
AcDbEntity
  8
LAYER0014
 62
     2
100
AcDbLine
 10
527.5779661016952
 20
420.6543264942017
 30
0.0
 11
782.5779661016952
 21
420.6543264942017
 31
0.0
  0
INSERT
  5
194
330
A9
100
AcDbEntity
  8
LAYER0014
 62
     2
100
AcDbBlockReference
  2
_OPEN30
 10
527.5779661016952
 20
420.6543264942017
 30
0.0
 41
9.175922197305043
 42
6.038325706448341
 50
180.0
  0
INSERT
  5
195
330
A9
100
AcDbEntity
  8
LAYER0014
 62
     2
100
AcDbBlockReference
  2
_OPEN30
 10
782.5779661016952
 20
420.6543264942017
 30
0.0
 41
9.175922197305043
 42
6.038325706448341
 50
360.0
  0
TEXT
  5
196
330
A9
100
AcDbEntity
  8
LAYER0014
 62
     2
100
AcDbText
 10
640.6779661016952
 20
423.0543264942018
 30
0.0
 40
12.0
  1
255
 41
0.8842105263157881
  7
DAVECTORFONT
 72
     5
 11
669.4779661016952
 21
423.0543264942018
 31
0.0
100
AcDbText
  0
ENDBLK
  5
AB
330
A9
100
AcDbEntity
  8
0
100
AcDbBlockEnd
  0
BLOCK
  5
AD
330
AC
100
AcDbEntity
  8
0
100
AcDbBlockBegin
  2
DA_IMAGEDIMGROUP_27
 70
     0
 71
     0
 10
0.0
 20
0.0
 30
0.0
  3
DA_IMAGEDIMGROUP_27
  1

  0
LINE
  5
197
330
AC
100
AcDbEntity
  8
LAYER0014
 62
     2
100
AcDbLine
 10
641.1779661016952
 20
474.6543264942017
 30
0.0
 11
811.9779661016952
 21
474.6543264942017
 31
0.0
  0
LINE
  5
198
330
AC
100
AcDbEntity
  8
LAYER0014
 62
     2
100
AcDbLine
 10
641.1779661016952
 20
510.6543264942017
 30
0.0
 11
811.9779661016952
 21
510.6543264942017
 31
0.0
  0
LINE
  5
199
330
AC
100
AcDbEntity
  8
LAYER0014
 62
     2
100
AcDbLine
 10
809.5779661016952
 20
474.6543264942017
 30
0.0
 11
809.5779661016952
 21
510.6543264942017
 31
0.0
  0
LINE
  5
19A
330
AC
100
AcDbEntity
  8
LAYER0014
 62
     2
100
AcDbLine
 10
809.5779661016952
 20
521.1543264942017
 30
0.0
 11
809.5779661016952
 21
510.6543264942017
 31
0.0
  0
INSERT
  5
19B
330
AC
100
AcDbEntity
  8
LAYER0014
 62
     2
100
AcDbBlockReference
  2
_OPEN30
 10
809.5779661016952
 20
510.6543264942017
 30
0.0
 41
9.175922197305043
 42
6.038325706448341
 50
270.0
  0
LINE
  5
19C
330
AC
100
AcDbEntity
  8
LAYER0014
 62
     2
100
AcDbLine
 10
809.5779661016952
 20
464.1543264942017
 30
0.0
 11
809.5779661016952
 21
474.6543264942017
 31
0.0
  0
INSERT
  5
19D
330
AC
100
AcDbEntity
  8
LAYER0014
 62
     2
100
AcDbBlockReference
  2
_OPEN30
 10
809.5779661016952
 20
474.6543264942017
 30
0.0
 41
9.175922197305043
 42
6.038325706448341
 50
90.0
  0
TEXT
  5
19E
330
AC
100
AcDbEntity
  8
LAYER0014
 62
     2
100
AcDbText
 10
807.1779661016952
 20
478.2543264942017
 30
0.0
 40
12.0
  1
φ36
 50
90.0
 41
0.9163636363636351
  7
DAVECTORFONT
 72
     5
 11
807.1779661016952
 21
507.0543264942017
 31
0.0
100
AcDbText
  0
ENDBLK
  5
AE
330
AC
100
AcDbEntity
  8
0
100
AcDbBlockEnd
  0
BLOCK
  5
B0
330
AF
100
AcDbEntity
  8
0
100
AcDbBlockBegin
  2
GROUP_6
 70
     0
 71
     0
 10
0.0
 20
0.0
 30
0.0
  3
GROUP_6
  1

  0
TEXT
  5
1A0
330
AF
100
AcDbEntity
  8
LAYER0013
 62
     2
100
AcDbText
 10
583.5779661016952
 20
380.519281627914
 30
0.0
 40
15.0
  1
ハンドルジョイント
 41
0.950943396226415
  7
FDASTYLE0
 72
     5
 11
691.5779661016952
 21
380.519281627914
 31
0.0
100
AcDbText
  0
LINE
  5
1A1
330
AF
100
AcDbEntity
  8
LAYER0013
 62
     2
100
AcDbLine
 10
582.0779661016952
 20
377.519281627914
 30
0.0
 11
693.0779661016952
 21
377.519281627914
 31
0.0
  0
ENDBLK
  5
B1
330
AF
100
AcDbEntity
  8
0
100
AcDbBlockEnd
  0
BLOCK
  5
B3
330
B2
100
AcDbEntity
  8
0
100
AcDbBlockBegin
  2
DA_IMAGEDIMGROUP_28
 70
     0
 71
     0
 10
0.0
 20
0.0
 30
0.0
  3
DA_IMAGEDIMGROUP_28
  1

  0
LINE
  5
1A2
330
B2
100
AcDbEntity
  8
LAYER0014
 62
     2
100
AcDbLine
 10
-441.0980231512326
 20
-270.2705714372569
 30
0.0
 11
-499.6167731512325
 21
-270.2705714372569
 31
0.0
  0
LINE
  5
1A3
330
B2
100
AcDbEntity
  8
LAYER0014
 62
     2
100
AcDbLine
 10
-497.2167731512325
 20
-300.2705714372569
 30
0.0
 11
-497.2167731512325
 21
-270.2705714372569
 31
0.0
  0
INSERT
  5
1A4
330
B2
100
AcDbEntity
  8
LAYER0014
 62
     2
100
AcDbBlockReference
  2
_OPEN30
 10
-497.2167731512325
 20
-300.2705714372569
 30
0.0
 41
9.175922197305043
 42
6.038325706448341
 50
270.0
  0
INSERT
  5
1A5
330
B2
100
AcDbEntity
  8
LAYER0014
 62
     2
100
AcDbBlockReference
  2
_OPEN30
 10
-497.2167731512325
 20
-270.2705714372569
 30
0.0
 41
9.175922197305043
 42
6.038325706448341
 50
90.0
  0
TEXT
  5
1A6
330
B2
100
AcDbEntity
  8
LAYER0014
 62
     2
100
AcDbText
 10
-499.6167731512325
 20
-294.8705714372569
 30
0.0
 40
12.0
  1
30
 50
90.0
 41
0.9081081081081104
  7
DAVECTORFONT
 72
     5
 11
-499.6167731512325
 21
-275.6705714372569
 31
0.0
100
AcDbText
  0
ENDBLK
  5
B4
330
B2
100
AcDbEntity
  8
0
100
AcDbBlockEnd
  0
BLOCK
  5
B6
330
B5
100
AcDbEntity
  8
0
100
AcDbBlockBegin
  2
GROUP_7
 70
     0
 71
     0
 10
0.0
 20
0.0
 30
0.0
  3
GROUP_7
  1

  0
LINE
  5
1A7
330
B5
100
AcDbEntity
  8
LAYER0014
 62
     2
100
AcDbLine
 10
-340.6070273917808
 20
412.0183830476211
 30
0.0
 11
-304.9980231512324
 21
475.7282652052708
 31
0.0
  0
INSERT
  5
1A8
330
B5
100
AcDbEntity
  8
LAYER0014
 62
     2
100
AcDbBlockReference
  2
_OPEN30
 10
-340.6070273917808
 20
412.0183830476211
 30
0.0
 41
9.175922197305043
 42
6.038325706448341
 50
240.798112362646
  0
LINE
  5
1A9
330
B5
100
AcDbEntity
  8
LAYER0014
 62
     2
100
AcDbLine
 10
-304.9980231512324
 20
475.7282652052708
 30
0.0
 11
-256.9980231512324
 21
475.7282652052708
 31
0.0
  0
TEXT
  5
1AA
330
B5
100
AcDbEntity
  8
LAYER0014
 62
     2
100
AcDbText
 10
-304.9980231512324
 20
478.1282652052707
 30
0.0
 40
12.0
  1
4-φ18
 41
0.8316831683168316
  7
DAVECTORFONT
 72
     5
 11
-256.9980231512324
 21
478.1282652052707
 31
0.0
100
AcDbText
  0
ENDBLK
  5
B7
330
B5
100
AcDbEntity
  8
0
100
AcDbBlockEnd
  0
BLOCK
  5
B9
330
B8
100
AcDbEntity
  8
0
100
AcDbBlockBegin
  2
DA_IMAGEDIMGROUP_29
 70
     0
 71
     0
 10
0.0
 20
0.0
 30
0.0
  3
DA_IMAGEDIMGROUP_29
  1

  0
LINE
  5
1AB
330
B8
100
AcDbEntity
  8
LAYER0014
 62
     2
100
AcDbLine
 10
625.5300914130069
 20
-304.0987352584991
 30
0.0
 11
625.5300914130069
 21
-337.6705714372567
 31
0.0
  0
LINE
  5
1AC
330
B8
100
AcDbEntity
  8
LAYER0014
 62
     2
100
AcDbLine
 10
643.5300914130069
 20
-304.0987352584991
 30
0.0
 11
643.5300914130069
 21
-337.6705714372567
 31
0.0
  0
LINE
  5
1AD
330
B8
100
AcDbEntity
  8
LAYER0014
 62
     2
100
AcDbLine
 10
625.5300914130069
 20
-335.2705714372568
 30
0.0
 11
643.5300914130069
 21
-335.2705714372568
 31
0.0
  0
LINE
  5
1AE
330
B8
100
AcDbEntity
  8
LAYER0014
 62
     2
100
AcDbLine
 10
581.6219249813425
 20
-335.2705714372568
 30
0.0
 11
625.5300914130069
 21
-335.2705714372568
 31
0.0
  0
INSERT
  5
1AF
330
B8
100
AcDbEntity
  8
LAYER0014
 62
     2
100
AcDbBlockReference
  2
_OPEN30
 10
625.5300914130069
 20
-335.2705714372568
 30
0.0
 41
9.175922197305043
 42
6.038325706448341
 50
360.0
  0
LINE
  5
1B0
330
B8
100
AcDbEntity
  8
LAYER0014
 62
     2
100
AcDbLine
 10
654.0300914130069
 20
-335.2705714372568
 30
0.0
 11
643.5300914130069
 21
-335.2705714372568
 31
0.0
  0
INSERT
  5
1B1
330
B8
100
AcDbEntity
  8
LAYER0014
 62
     2
100
AcDbBlockReference
  2
_OPEN30
 10
643.5300914130069
 20
-335.2705714372568
 30
0.0
 41
9.175922197305043
 42
6.038325706448341
 50
180.0
  0
TEXT
  5
1B2
330
B8
100
AcDbEntity
  8
LAYER0014
 62
     2
100
AcDbText
 10
581.6219249813425
 20
-332.8705714372568
 30
0.0
 40
12.0
  1
18
 41
0.9081081081081104
  7
DAVECTORFONT
 72
     5
 11
600.8219249813426
 21
-332.8705714372568
 31
0.0
100
AcDbText
  0
TEXT
  5
1B3
330
B8
100
AcDbEntity
  8
LAYER0014
 62
     2
100
AcDbText
 10
602.3219249813426
 20
-332.8705714372568
 30
0.0
 40
12.0
  1
H7
 41
0.8615384615384636
  7
DAVECTORFONT
 72
     5
 11
621.5219249813426
 21
-332.8705714372568
 31
0.0
100
AcDbText
  0
ENDBLK
  5
BA
330
B8
100
AcDbEntity
  8
0
100
AcDbBlockEnd
  0
BLOCK
  5
BC
330
BB
100
AcDbEntity
  8
0
100
AcDbBlockBegin
  2
DA_IMAGEDIMGROUP_30
 70
     0
 71
     0
 10
0.0
 20
0.0
 30
0.0
  3
DA_IMAGEDIMGROUP_30
  1

  0
LINE
  5
1B4
330
BB
100
AcDbEntity
  8
LAYER0014
 62
     2
100
AcDbLine
 10
647.1300914130069
 20
-296.2705714372569
 30
0.0
 11
672.9300914130068
 21
-296.2705714372569
 31
0.0
  0
LINE
  5
1B5
330
BB
100
AcDbEntity
  8
LAYER0014
 62
     2
100
AcDbLine
 10
670.5300914130069
 20
-300.2705714372569
 30
0.0
 11
670.5300914130069
 21
-296.2705714372569
 31
0.0
  0
LINE
  5
1B6
330
BB
100
AcDbEntity
  8
LAYER0014
 62
     2
100
AcDbLine
 10
670.5300914130069
 20
-318.7338314372569
 30
0.0
 11
670.5300914130069
 21
-300.2705714372569
 31
0.0
  0
INSERT
  5
1B7
330
BB
100
AcDbEntity
  8
LAYER0014
 62
     2
100
AcDbBlockReference
  2
_OPEN30
 10
670.5300914130069
 20
-300.2705714372569
 30
0.0
 41
9.175922197305043
 42
6.038325706448341
 50
90.0
  0
LINE
  5
1B8
330
BB
100
AcDbEntity
  8
LAYER0014
 62
     2
100
AcDbLine
 10
670.5300914130069
 20
-285.7705714372569
 30
0.0
 11
670.5300914130069
 21
-296.2705714372569
 31
0.0
  0
INSERT
  5
1B9
330
BB
100
AcDbEntity
  8
LAYER0014
 62
     2
100
AcDbBlockReference
  2
_OPEN30
 10
670.5300914130069
 20
-296.2705714372569
 30
0.0
 41
9.175922197305043
 42
6.038325706448341
 50
270.0
  0
TEXT
  5
1BA
330
BB
100
AcDbEntity
  8
LAYER0014
 62
     2
100
AcDbText
 10
668.1300914130069
 20
-318.7338314372569
 30
0.0
 40
12.0
  1
4
 50
90.0
 41
0.9333333333333357
  7
DAVECTORFONT
 72
     5
 11
668.1300914130069
 21
-309.1338314372569
 31
0.0
100
AcDbText
  0
ENDBLK
  5
BD
330
BB
100
AcDbEntity
  8
0
100
AcDbBlockEnd
  0
BLOCK
  5
BF
330
BE
100
AcDbEntity
  8
0
100
AcDbBlockBegin
  2
GROUP_8
 70
     0
 71
     0
 10
0.0
 20
0.0
 30
0.0
  3
GROUP_8
  1

  0
LINE
  5
1BB
330
BE
100
AcDbEntity
  8
ZUWAKU
 62
     3
100
AcDbLine
 10
-832.5
 20
577.5
 30
0.0
 11
832.5
 21
577.5
 31
0.0
  0
LINE
  5
1BC
330
BE
100
AcDbEntity
  8
ZUWAKU
 62
     3
100
AcDbLine
 10
-832.5
 20
-577.5
 30
0.0
 11
-832.5
 21
577.5
 31
0.0
  0
LINE
  5
1BD
330
BE
100
AcDbEntity
  8
ZUWAKU
 62
     3
100
AcDbLine
 10
832.5
 20
-577.5
 30
0.0
 11
-832.5
 21
-577.5
 31
0.0
  0
LINE
  5
1BE
330
BE
100
AcDbEntity
  8
ZUWAKU
 62
     3
100
AcDbLine
 10
832.5
 20
577.5
 30
0.0
 11
832.5
 21
-577.5
 31
0.0
  0
ENDBLK
  5
C0
330
BE
100
AcDbEntity
  8
0
100
AcDbBlockEnd
  0
ENDSEC
  0
SECTION
  2
ENTITIES
  0
LINE
  5
1BF
330
1F
100
AcDbEntity
  8
0
 62
     3
100
AcDbLine
 10
-609.9980231512325
 20
-104.2705714372569
 30
0.0
 11
-579.9980231512325
 21
-104.2705714372569
 31
0.0
  0
LINE
  5
1C0
330
1F
100
AcDbEntity
  8
0
 62
     3
100
AcDbLine
 10
85.00197684876753
 20
-270.2705714372569
 30
0.0
 11
85.00197684876753
 21
-300.2705714372569
 31
0.0
  0
LINE
  5
1C1
330
1F
100
AcDbEntity
  8
0
 62
     3
100
AcDbLine
 10
-734.9980231512325
 20
-300.2705714372569
 30
0.0
 11
-734.9980231512325
 21
-270.2705714372569
 31
0.0
  0
LINE
  5
1C2
330
1F
100
AcDbEntity
  8
0
 62
     3
100
AcDbLine
 10
-731.9980231512325
 20
-267.2705714372569
 30
0.0
 11
-474.2167731512325
 21
-267.2705714372569
 31
0.0
  0
ARC
  5
1C3
330
1F
100
AcDbEntity
  8
0
 62
     3
100
AcDbCircle
 10
82.00197684876753
 20
-270.2705714372569
 30
0.0
 40
3.0
100
AcDbArc
 50
0.0
 51
89.99999999999999
  0
ARC
  5
1C4
330
1F
100
AcDbEntity
  8
0
 62
     3
100
AcDbCircle
 10
-731.9980231512325
 20
-270.2705714372569
 30
0.0
 40
3.0
100
AcDbArc
 50
89.99999999999999
 51
180.0
  0
LINE
  5
1C5
330
1F
100
AcDbEntity
  8
0
 62
     3
100
AcDbLine
 10
32.74050962052444
 20
-265.3229454213315
 30
0.0
 11
52.26344407701043
 21
-267.0309808650339
 31
0.0
  0
LINE
  5
1C6
330
1F
100
AcDbEntity
  8
0
 62
     3
100
AcDbLine
 10
30.00197684876746
 20
-262.3343613270563
 30
0.0
 11
30.00197684876763
 21
-237.2067815474578
 31
0.0
  0
ARC
  5
1C7
330
1F
100
AcDbEntity
  8
0
 62
     3
100
AcDbCircle
 10
33.00197684876746
 20
-262.3343613270563
 30
0.0
 40
3.0
100
AcDbArc
 50
180.0
 51
265.0
  0
LINE
  5
1C8
330
1F
100
AcDbEntity
  8
0
 62
     3
100
AcDbLine
 10
32.74050962052466
 20
-234.2181974531825
 30
0.0
 11
52.26344407701038
 21
-232.5101620094804
 31
0.0
  0
ARC
  5
1C9
330
1F
100
AcDbEntity
  8
0
 62
     3
100
AcDbCircle
 10
33.00197684876763
 20
-237.2067815474578
 30
0.0
 40
3.0
100
AcDbArc
 50
94.99999999999962
 51
180.0
  0
LINE
  5
1CA
330
1F
100
AcDbEntity
  8
0
 62
     3
100
AcDbLine
 10
55.00197684876741
 20
-229.5215779152051
 30
0.0
 11
55.00197684876741
 21
-184.2705714372568
 31
0.0
  0
ARC
  5
1CB
330
1F
100
AcDbEntity
  8
0
 62
     3
100
AcDbCircle
 10
52.00197684876741
 20
-229.5215779152051
 30
0.0
 40
3.0
100
AcDbArc
 50
274.9999999999999
 51
360.0
  0
LINE
  5
1CC
330
1F
100
AcDbEntity
  8
0
 62
     3
100
AcDbLine
 10
-235.9980231512326
 20
-182.2705714372569
 30
0.0
 11
-579.9980231512325
 21
-182.2705714372569
 31
0.0
  0
LINE
  5
1CD
330
1F
100
AcDbEntity
  8
0
 62
     3
100
AcDbLine
 10
-579.9980231512325
 20
-182.2705714372568
 30
0.0
 11
-579.9980231512325
 21
-102.2705714372574
 31
0.0
  0
LINE
  5
1CE
330
1F
100
AcDbEntity
  8
0
 62
     3
100
AcDbLine
 10
-564.9980231512325
 20
-182.2705714372569
 30
0.0
 11
-564.9980231512325
 21
-267.2705714372569
 31
0.0
  0
LINE
  5
1CF
330
1F
100
AcDbEntity
  8
0
 62
     3
100
AcDbLine
 10
-567.9980231512325
 20
-204.2705714372569
 30
0.0
 11
-589.9980231512325
 21
-204.2705714372569
 31
0.0
  0
LINE
  5
1D0
330
1F
100
AcDbEntity
  8
0
 62
     3
100
AcDbLine
 10
-609.9980231512325
 20
-184.2705714372569
 30
0.0
 11
-609.9980231512325
 21
-104.2705714372569
 31
0.0
  0
ARC
  5
1D1
330
1F
100
AcDbEntity
  8
0
 62
     3
100
AcDbCircle
 10
-589.9980231512325
 20
-184.2705714372569
 30
0.0
 40
20.0
100
AcDbArc
 50
180.0
 51
269.9999999999999
  0
LINE
  5
1D2
330
1F
100
AcDbEntity
  8
0
 62
     3
100
AcDbLine
 10
-630.500548468174
 20
-109.2705714372569
 30
0.0
 11
-614.9980231512325
 21
-109.2705714372569
 31
0.0
  0
LINE
  5
1D3
330
1F
100
AcDbEntity
  8
0
 62
     3
100
AcDbLine
 10
-655.249285809703
 20
-119.5218340957277
 30
0.0
 11
-685.8272790157498
 21
-150.0998273017749
 31
0.0
  0
ARC
  5
1D4
330
1F
100
AcDbEntity
  8
0
 62
     3
100
AcDbCircle
 10
-630.500548468174
 20
-144.2705714372569
 30
0.0
 40
35.0
100
AcDbArc
 50
90.00000000000009
 51
135.0
  0
LINE
  5
1D5
330
1F
100
AcDbEntity
  8
0
 62
     3
100
AcDbLine
 10
55.00197684876741
 20
-204.2705714372569
 30
0.0
 11
-550.9980231512325
 21
-204.2705714372567
 31
0.0
  0
LINE
  5
1D6
330
1F
100
AcDbEntity
  8
0
 62
     3
100
AcDbLine
 10
-550.9980231512325
 20
-222.2705714372567
 30
0.0
 11
-290.4833045254707
 21
-222.2705714372567
 31
0.0
  0
LINE
  5
1D7
330
1F
100
AcDbEntity
  8
0
 62
     3
100
AcDbLine
 10
-273.512741776994
 20
-222.2705714372567
 30
0.0
 11
-176.4833045254709
 21
-222.2705714372567
 31
0.0
  0
LINE
  5
1D8
330
1F
100
AcDbEntity
  8
0
 62
     3
100
AcDbLine
 10
-159.512741776994
 20
-222.2705714372567
 30
0.0
 11
-62.4833045254708
 21
-222.2705714372567
 31
0.0
  0
LINE
  5
1D9
330
1F
100
AcDbEntity
  8
0
 62
     3
100
AcDbLine
 10
-45.51274177699409
 20
-222.2705714372567
 30
0.0
 11
55.00197684876741
 21
-222.2705714372567
 31
0.0
  0
ARC
  5
1DA
330
1F
100
AcDbEntity
  8
0
 62
     3
100
AcDbCircle
 10
-550.9980231512325
 20
-213.2705714372567
 30
0.0
 40
8.999999999999986
100
AcDbArc
 50
89.99999999999999
 51
269.9999999999999
  0
LINE
  5
1DB
330
1F
100
AcDbEntity
  8
0
 62
     3
100
AcDbLine
 10
-526.9980231512325
 20
-186.2705714372569
 30
0.0
 11
-526.9980231512325
 21
-182.2705714372569
 31
0.0
  0
ARC
  5
1DC
330
1F
100
AcDbEntity
  8
0
 62
     3
100
AcDbCircle
 10
-499.5025689814975
 20
-174.2705714372567
 30
0.0
 40
30.0
100
AcDbArc
 50
203.578178478202
 51
269.9999999999999
  0
LINE
  5
1DD
330
1F
100
AcDbEntity
  8
0
 62
     3
100
AcDbLine
 10
-559.9980231512325
 20
-201.2705714372567
 30
0.0
 11
-512.5792658121195
 21
-201.2705714372567
 31
0.0
  0
ARC
  5
1DE
330
1F
100
AcDbEntity
  8
0
 62
     3
100
AcDbCircle
 10
52.00197684876747
 20
-270.0195649593092
 30
0.0
 40
3.0
100
AcDbArc
 50
66.39548434907886
 51
84.99999999999938
  0
LINE
  5
1DF
330
1F
100
AcDbEntity
  8
0
 62
     3
100
AcDbLine
 10
-695.9453561074317
 20
-171.7981136471355
 30
0.0
 11
-704.2981138430243
 21
-267.2705714372567
 31
0.0
  0
ARC
  5
1E0
330
1F
100
AcDbEntity
  8
0
 62
     3
100
AcDbCircle
 10
-708.0002834918428
 20
-229.2705714372569
 30
0.0
 40
7.0
100
AcDbArc
 50
354.9999999999999
 51
89.99999999999994
  0
ARC
  5
1E1
330
1F
100
AcDbEntity
  8
0
 62
     3
100
AcDbCircle
 10
-661.0785416742208
 20
-174.8485646433039
 30
0.0
 40
35.0
100
AcDbArc
 50
135.0000000000001
 51
175.0
  0
ARC
  5
1E2
330
1F
100
AcDbEntity
  8
0
 62
     3
100
AcDbCircle
 10
-712.1099508845568
 20
-264.7705714372569
 30
0.0
 40
8.0
100
AcDbArc
 50
341.7900431357168
 51
354.9999999999998
  0
ARC
  5
1E3
330
1F
100
AcDbEntity
  8
0
 62
     3
100
AcDbCircle
 10
-727.9980231512325
 20
-236.2705714372569
 30
0.0
 40
4.0
100
AcDbArc
 50
175.0
 51
324.9999999999999
  0
LINE
  5
1E4
330
1F
100
AcDbEntity
  8
0
 62
     3
100
AcDbLine
 10
-731.9828019435993
 20
-235.9219484662662
 30
0.0
 11
-731.1215418121592
 21
-226.0777001176229
 31
0.0
  0
LINE
  5
1E5
330
1F
100
AcDbEntity
  8
0
 62
     3
100
AcDbLine
 10
-724.7214149740764
 20
-238.5648771826611
 30
0.0
 11
-715.4021142174111
 21
-225.2555363827995
 31
0.0
  0
LINE
  5
1E6
330
1F
100
AcDbEntity
  8
0
 62
     3
100
AcDbLine
 10
-709.6680499073882
 20
-222.2705714372569
 30
0.0
 11
-708.0002834918428
 21
-222.2705714372569
 31
0.0
  0
ARC
  5
1E7
330
1F
100
AcDbEntity
  8
0
 62
     3
100
AcDbCircle
 10
-709.6680499073882
 20
-229.2705714372569
 30
0.0
 40
7.0
100
AcDbArc
 50
89.99999999999999
 51
145.0
  0
LINE
  5
1E8
330
1F
100
AcDbEntity
  8
0
 62
     3
100
AcDbLine
 10
-696.0419341048487
 20
-235.2705714372569
 30
0.0
 11
-569.9980231512325
 21
-235.2705714372569
 31
0.0
  0
LINE
  5
1E9
330
1F
100
AcDbEntity
  8
0
 62
     3
100
AcDbLine
 10
-466.2167731512325
 20
-275.270571437257
 30
0.0
 11
-441.4980231512325
 21
-275.2705714372569
 31
0.0
  0
ARC
  5
1EA
330
1F
100
AcDbEntity
  8
0
 62
     3
100
AcDbCircle
 10
-462.6548145496323
 20
-280.270571437257
 30
0.0
 40
5.0
100
AcDbArc
 50
89.99999999999986
 51
180.0
  0
ARC
  5
1EB
330
1F
100
AcDbEntity
  8
0
 62
     3
100
AcDbCircle
 10
-451.4641690523798
 20
-280.2705714372571
 30
0.0
 40
5.0
100
AcDbArc
 50
0.0
 51
89.99999999999986
  0
LINE
  5
1EC
330
1F
100
AcDbEntity
  8
0
 62
     3
100
AcDbLine
 10
-437.4980231512325
 20
-271.2705714372569
 30
0.0
 11
-437.4980231512325
 21
-270.2705714372569
 31
0.0
  0
ARC
  5
1ED
330
1F
100
AcDbEntity
  8
0
 62
     3
100
AcDbCircle
 10
-441.4980231512325
 20
-271.2705714372569
 30
0.0
 40
4.0
100
AcDbArc
 50
269.9999999999999
 51
360.0
  0
LINE
  5
1EE
330
1F
100
AcDbEntity
  8
0
 62
     3
100
AcDbLine
 10
-437.4980231512325
 20
-270.2705714372569
 30
0.0
 11
-392.4980231512324
 21
-270.2705714372569
 31
0.0
  0
LINE
  5
1EF
330
1F
100
AcDbEntity
  8
0
 62
     3
100
AcDbLine
 10
-392.4980231512324
 20
-270.2705714372569
 30
0.0
 11
-392.4980231512326
 21
-271.2705714372569
 31
0.0
  0
ARC
  5
1F0
330
1F
100
AcDbEntity
  8
0
 62
     3
100
AcDbCircle
 10
-474.2167731512325
 20
-271.2705714372569
 30
0.0
 40
4.0
100
AcDbArc
 50
0.0
 51
89.99999999999999
  0
ARC
  5
1F1
330
1F
100
AcDbEntity
  8
0
 62
     3
100
AcDbCircle
 10
-466.2167731512325
 20
-271.2705714372569
 30
0.0
 40
4.0
100
AcDbArc
 50
180.0000000000003
 51
269.9999999999999
  0
LINE
  5
1F2
330
1F
100
AcDbEntity
  8
0
 62
     3
100
AcDbLine
 10
-425.9980231512328
 20
-270.2705714372569
 30
0.0
 11
-425.9980231512328
 21
-300.2705714372569
 31
0.0
  0
LINE
  5
1F3
330
1F
100
AcDbEntity
  8
0
 62
     3
100
AcDbLine
 10
-403.9980231512325
 20
-270.2705714372569
 30
0.0
 11
-403.9980231512325
 21
-300.2705714372569
 31
0.0
  0
LINE
  5
1F4
330
1F
100
AcDbEntity
  8
0
 62
     3
100
AcDbLine
 10
-361.9980231512322
 20
-275.2705714372569
 30
0.0
 11
-388.4980231512326
 21
-275.2705714372569
 31
0.0
  0
ARC
  5
1F5
330
1F
100
AcDbEntity
  8
0
 62
     3
100
AcDbCircle
 10
-361.9980231512322
 20
-271.2705714372569
 30
0.0
 40
4.0
100
AcDbArc
 50
270.0000000000001
 51
360.0
  0
ARC
  5
1F6
330
1F
100
AcDbEntity
  8
0
 62
     3
100
AcDbCircle
 10
-388.4980231512326
 20
-271.2705714372569
 30
0.0
 40
4.0
100
AcDbArc
 50
180.0
 51
270.0
  0
ARC
  5
1F7
330
1F
100
AcDbEntity
  8
0
 62
     3
100
AcDbCircle
 10
-353.9980231512321
 20
-271.2705714372569
 30
0.0
 40
4.0
100
AcDbArc
 50
89.99999999999999
 51
180.0
  0
LINE
  5
1F8
330
1F
100
AcDbEntity
  8
0
 62
     3
100
AcDbLine
 10
-423.9980231512328
 20
-308.2705714372569
 30
0.0
 11
-423.9980231512328
 21
-296.2705714372569
 31
0.0
  0
LINE
  5
1F9
330
1F
100
AcDbEntity
  8
0
 62
     3
100
AcDbLine
 10
-423.9980231512328
 20
-296.2705714372569
 30
0.0
 11
-405.9980231512328
 21
-296.2705714372569
 31
0.0
  0
LINE
  5
1FA
330
1F
100
AcDbEntity
  8
0
 62
     3
100
AcDbLine
 10
-405.9980231512328
 20
-296.2705714372569
 30
0.0
 11
-405.9980231512328
 21
-308.2705714372569
 31
0.0
  0
LINE
  5
1FB
330
1F
100
AcDbEntity
  8
0
 62
     3
100
AcDbLine
 10
-456.4090703676357
 20
-300.2705714372569
 30
0.0
 11
-456.4090703676357
 21
-294.2705714372569
 31
0.0
  0
CIRCLE
  5
1FC
330
1F
100
AcDbEntity
  8
0
 62
     3
100
AcDbCircle
 10
-53.99802315123245
 20
-239.2705714372569
 30
0.0
 40
14.0
  0
ARC
  5
1FD
330
1F
100
AcDbEntity
  8
0
 62
     3
100
AcDbCircle
 10
-53.99802315123245
 20
-239.2705714372569
 30
0.0
 40
19.0
100
AcDbArc
 50
116.525352016609
 51
63.47464798339104
  0
CIRCLE
  5
1FE
330
1F
100
AcDbEntity
  8
0
 62
     3
100
AcDbCircle
 10
-167.9980231512325
 20
-239.2705714372569
 30
0.0
 40
14.0
  0
ARC
  5
1FF
330
1F
100
AcDbEntity
  8
0
 62
     3
100
AcDbCircle
 10
-167.9980231512325
 20
-239.2705714372569
 30
0.0
 40
19.0
100
AcDbArc
 50
116.525352016609
 51
63.47464798339092
  0
CIRCLE
  5
200
330
1F
100
AcDbEntity
  8
0
 62
     3
100
AcDbCircle
 10
-281.9980231512324
 20
-239.2705714372569
 30
0.0
 40
14.0
  0
ARC
  5
201
330
1F
100
AcDbEntity
  8
0
 62
     3
100
AcDbCircle
 10
-281.9980231512324
 20
-239.2705714372569
 30
0.0
 40
19.0
100
AcDbArc
 50
116.525352016609
 51
63.47464798339104
  0
LINE
  5
202
330
1F
100
AcDbEntity
  8
0
 62
     3
100
AcDbLine
 10
794.5300914130069
 20
-270.2705714372569
 30
0.0
 11
794.5300914130069
 21
-300.2705714372569
 31
0.0
  0
LINE
  5
203
330
1F
100
AcDbEntity
  8
0
 62
     3
100
AcDbLine
 10
794.5300914130069
 20
-300.2705714372569
 30
0.0
 11
474.5300914130069
 21
-300.2705714372568
 31
0.0
  0
LINE
  5
204
330
1F
100
AcDbEntity
  8
0
 62
     3
100
AcDbLine
 10
474.5300914130069
 20
-300.2705714372568
 30
0.0
 11
474.5300914130069
 21
-270.2705714372568
 31
0.0
  0
LINE
  5
205
330
1F
100
AcDbEntity
  8
0
 62
     3
100
AcDbLine
 10
589.930091413007
 20
-182.2705714372568
 30
0.0
 11
541.5300914130071
 21
-182.2705714372569
 31
0.0
  0
LINE
  5
206
330
1F
100
AcDbEntity
  8
0
 62
     3
100
AcDbLine
 10
541.5300914130071
 20
-182.2705714372569
 30
0.0
 11
539.5300914130071
 21
-184.2705714372569
 31
0.0
  0
LINE
  5
207
330
1F
100
AcDbEntity
  8
0
 62
     3
100
AcDbLine
 10
589.930091413007
 20
-182.2705714372568
 30
0.0
 11
591.930091413007
 21
-184.2705714372568
 31
0.0
  0
LINE
  5
208
330
1F
100
AcDbEntity
  8
0
 62
     3
100
AcDbLine
 10
679.1300914130068
 20
-182.2705714372569
 30
0.0
 11
727.5300914130069
 21
-182.2705714372568
 31
0.0
  0
LINE
  5
209
330
1F
100
AcDbEntity
  8
0
 62
     3
100
AcDbLine
 10
727.5300914130069
 20
-182.2705714372568
 30
0.0
 11
729.5300914130069
 21
-184.2705714372569
 31
0.0
  0
LINE
  5
20A
330
1F
100
AcDbEntity
  8
0
 62
     3
100
AcDbLine
 10
679.1300914130068
 20
-182.2705714372569
 30
0.0
 11
677.1300914130068
 21
-184.2705714372569
 31
0.0
  0
LINE
  5
20B
330
1F
100
AcDbEntity
  8
0
 62
     3
100
AcDbLine
 10
539.5300914130071
 20
-184.2705714372569
 30
0.0
 11
539.5300914130071
 21
-203.2705714372569
 31
0.0
  0
LINE
  5
20C
330
1F
100
AcDbEntity
  8
0
 62
     3
100
AcDbLine
 10
539.5300914130071
 20
-203.2705714372569
 30
0.0
 11
540.5300914130071
 21
-204.2705714372569
 31
0.0
  0
LINE
  5
20D
330
1F
100
AcDbEntity
  8
0
 62
     3
100
AcDbLine
 10
729.5300914130069
 20
-184.2705714372569
 30
0.0
 11
729.5300914130069
 21
-203.2705714372569
 31
0.0
  0
LINE
  5
20E
330
1F
100
AcDbEntity
  8
0
 62
     3
100
AcDbLine
 10
729.5300914130069
 20
-203.2705714372569
 30
0.0
 11
728.5300914130071
 21
-204.2705714372569
 31
0.0
  0
LINE
  5
20F
330
1F
100
AcDbEntity
  8
0
 62
     3
100
AcDbLine
 10
591.930091413007
 20
-265.2705714372569
 30
0.0
 11
591.930091413007
 21
-184.2705714372568
 31
0.0
  0
LINE
  5
210
330
1F
100
AcDbEntity
  8
0
 62
     3
100
AcDbLine
 10
591.930091413007
 20
-265.2705714372569
 30
0.0
 11
596.930091413007
 21
-270.2705714372569
 31
0.0
  0
LINE
  5
211
330
1F
100
AcDbEntity
  8
0
 62
     3
100
AcDbLine
 10
677.1300914130068
 20
-265.2705714372569
 30
0.0
 11
677.1300914130068
 21
-184.2705714372569
 31
0.0
  0
LINE
  5
212
330
1F
100
AcDbEntity
  8
0
 62
     3
100
AcDbLine
 10
677.1300914130068
 20
-265.2705714372569
 30
0.0
 11
672.1300914130068
 21
-270.2705714372569
 31
0.0
  0
LINE
  5
213
330
1F
100
AcDbEntity
  8
0
 62
     3
100
AcDbLine
 10
559.5300914130071
 20
-204.2705714372568
 30
0.0
 11
540.5300914130071
 21
-204.2705714372569
 31
0.0
  0
LINE
  5
214
330
1F
100
AcDbEntity
  8
0
 62
     3
100
AcDbLine
 10
709.5300914130069
 20
-204.2705714372567
 30
0.0
 11
728.5300914130071
 21
-204.2705714372569
 31
0.0
  0
LINE
  5
215
330
1F
100
AcDbEntity
  8
0
 62
     3
100
AcDbLine
 10
557.0300914130069
 20
-204.2705714372568
 30
0.0
 11
557.0300914130069
 21
-256.026858727178
 31
0.0
  0
LINE
  5
216
330
1F
100
AcDbEntity
  8
0
 62
     3
100
AcDbLine
 10
712.0300914130069
 20
-204.2705714372567
 30
0.0
 11
712.0300914130069
 21
-256.026858727178
 31
0.0
  0
LINE
  5
217
330
1F
100
AcDbEntity
  8
0
 62
     3
100
AcDbLine
 10
477.5300914130069
 20
-267.2705714372568
 30
0.0
 11
593.930091413007
 21
-267.2705714372569
 31
0.0
  0
ARC
  5
218
330
1F
100
AcDbEntity
  8
0
 62
     3
100
AcDbCircle
 10
477.5300914130069
 20
-270.2705714372568
 30
0.0
 40
3.0
100
AcDbArc
 50
89.99999999999999
 51
180.0
  0
LINE
  5
219
330
1F
100
AcDbEntity
  8
0
 62
     3
100
AcDbLine
 10
675.1300914130068
 20
-267.2705714372569
 30
0.0
 11
791.5300914130069
 21
-267.2705714372569
 31
0.0
  0
ARC
  5
21A
330
1F
100
AcDbEntity
  8
0
 62
     3
100
AcDbCircle
 10
791.5300914130069
 20
-270.2705714372569
 30
0.0
 40
3.0
100
AcDbArc
 50
0.0000000000000114
 51
89.99999999999999
  0
LINE
  5
21B
330
1F
100
AcDbEntity
  8
0
 62
     3
100
AcDbLine
 10
502.0300914130071
 20
-270.2705714372568
 30
0.0
 11
502.0300914130069
 21
-300.2705714372568
 31
0.0
  0
ARC
  5
21C
330
1F
100
AcDbEntity
  8
0
 62
     3
100
AcDbCircle
 10
505.0300914130071
 20
-270.2705714372568
 30
0.0
 40
3.0
100
AcDbArc
 50
89.99999999999999
 51
180.0
  0
LINE
  5
21D
330
1F
100
AcDbEntity
  8
0
 62
     3
100
AcDbLine
 10
767.0300914130069
 20
-300.270571437257
 30
0.0
 11
767.0300914130069
 21
-270.2705714372571
 31
0.0
  0
LINE
  5
21E
330
1F
100
AcDbEntity
  8
0
 62
     3
100
AcDbLine
 10
596.930091413007
 20
-270.2705714372569
 30
0.0
 11
672.1300914130068
 21
-270.2705714372569
 31
0.0
  0
LINE
  5
21F
330
1F
100
AcDbEntity
  8
0
 62
     3
100
AcDbLine
 10
623.5300914130069
 20
-270.2705714372569
 30
0.0
 11
623.5300914130069
 21
-300.2705714372569
 31
0.0
  0
LINE
  5
220
330
1F
100
AcDbEntity
  8
0
 62
     3
100
AcDbLine
 10
645.5300914130069
 20
-270.2705714372569
 30
0.0
 11
645.5300914130069
 21
-300.2705714372569
 31
0.0
  0
LINE
  5
221
330
1F
100
AcDbEntity
  8
0
 62
     3
100
AcDbLine
 10
560.0300914130069
 20
-232.2705714372574
 30
0.0
 11
588.930091413007
 21
-232.2705714372574
 31
0.0
  0
ARC
  5
222
330
1F
100
AcDbEntity
  8
0
 62
     3
100
AcDbCircle
 10
588.930091413007
 20
-229.2705714372574
 30
0.0
 40
3.0
100
AcDbArc
 50
269.9999999999999
 51
360.0
  0
ARC
  5
223
330
1F
100
AcDbEntity
  8
0
 62
     3
100
AcDbCircle
 10
560.0300914130069
 20
-229.2705714372574
 30
0.0
 40
3.0
100
AcDbArc
 50
180.0
 51
270.0
  0
LINE
  5
224
330
1F
100
AcDbEntity
  8
0
 62
     3
100
AcDbLine
 10
680.1300914130068
 20
-232.2705714372574
 30
0.0
 11
709.0300914130069
 21
-232.2705714372574
 31
0.0
  0
ARC
  5
225
330
1F
100
AcDbEntity
  8
0
 62
     3
100
AcDbCircle
 10
709.0300914130069
 20
-229.2705714372574
 30
0.0
 40
3.0
100
AcDbArc
 50
269.9999999999999
 51
360.0
  0
ARC
  5
226
330
1F
100
AcDbEntity
  8
0
 62
     3
100
AcDbCircle
 10
680.1300914130068
 20
-229.2705714372574
 30
0.0
 40
3.0
100
AcDbArc
 50
180.0
 51
269.9999999999999
  0
LINE
  5
227
330
1F
100
AcDbEntity
  8
0
 62
     3
100
AcDbLine
 10
519.5300914130069
 20
-220.3950869338538
 30
0.0
 11
519.5300914130069
 21
-225.2705714372567
 31
0.0
  0
LINE
  5
228
330
1F
100
AcDbEntity
  8
0
 62
     3
100
AcDbLine
 10
749.5300914130069
 20
-220.395086933854
 30
0.0
 11
749.530091413006
 21
-223.2705714372566
 31
0.0
  0
ARC
  5
229
330
1F
100
AcDbEntity
  8
0
 62
     3
100
AcDbCircle
 10
529.5300914130069
 20
-225.2705714372569
 30
0.0
 40
10.0
100
AcDbArc
 50
180.0
 51
269.9999999999999
  0
LINE
  5
22A
330
1F
100
AcDbEntity
  8
0
 62
     3
100
AcDbLine
 10
539.5300914130069
 20
-245.2705714372569
 30
0.0
 11
539.5300914130069
 21
-256.3633971887165
 31
0.0
  0
ARC
  5
22B
330
1F
100
AcDbEntity
  8
0
 62
     3
100
AcDbCircle
 10
529.5300914130069
 20
-245.2705714372569
 30
0.0
 40
10.0
100
AcDbArc
 50
0.0000000000000114
 51
89.99999999999999
  0
ARC
  5
22C
330
1F
100
AcDbEntity
  8
0
 62
     3
100
AcDbCircle
 10
521.5300914130069
 20
-256.3633971887164
 30
0.0
 40
18.0
100
AcDbArc
 50
322.7024687189843
 51
360.0
  0
ARC
  5
22D
330
1F
100
AcDbEntity
  8
0
 62
     3
100
AcDbCircle
 10
539.0300914130069
 20
-256.026858727178
 30
0.0
 40
18.0
100
AcDbArc
 50
321.3434451984426
 51
360.0
  0
ARC
  5
22E
330
1F
100
AcDbEntity
  8
0
 62
     3
100
AcDbCircle
 10
747.5300914130069
 20
-256.3633971887166
 30
0.0
 40
18.0
100
AcDbArc
 50
180.0
 51
217.2975312810156
  0
ARC
  5
22F
330
1F
100
AcDbEntity
  8
0
 62
     3
100
AcDbCircle
 10
730.0300914130069
 20
-256.0268587271781
 30
0.0
 40
18.0
100
AcDbArc
 50
180.0
 51
218.6565548015573
  0
ARC
  5
230
330
1F
100
AcDbEntity
  8
0
 62
     3
100
AcDbCircle
 10
764.0300914130069
 20
-270.2705714372571
 30
0.0
 40
3.0
100
AcDbArc
 50
0.0000000000000114
 51
89.99999999999993
  0
LINE
  5
231
330
1F
100
AcDbEntity
  8
0
 62
     3
100
AcDbLine
 10
557.0300914130069
 20
-222.2705714372569
 30
0.0
 11
559.5300914130069
 21
-222.2705714372569
 31
0.0
  0
LINE
  5
232
330
1F
100
AcDbEntity
  8
0
 62
     3
100
AcDbLine
 10
559.5300914130069
 20
-222.2705714372569
 30
0.0
 11
559.5300914130071
 21
-204.2705714372568
 31
0.0
  0
LINE
  5
233
330
1F
100
AcDbEntity
  8
0
 62
     3
100
AcDbLine
 10
712.0300914130069
 20
-222.2705714372567
 30
0.0
 11
709.5300914130069
 21
-222.2705714372567
 31
0.0
  0
LINE
  5
234
330
1F
100
AcDbEntity
  8
0
 62
     3
100
AcDbLine
 10
709.5300914130069
 20
-204.2705714372567
 30
0.0
 11
709.5300914130069
 21
-222.2705714372567
 31
0.0
  0
LINE
  5
235
330
1F
100
AcDbEntity
  8
0
 62
     3
100
AcDbLine
 10
-724.0534000440553
 20
-212.4999261101969
 30
0.0
 11
-702.3210767173337
 21
-194.2643416221194
 31
0.0
  0
ARC
  5
236
330
1F
100
AcDbEntity
  8
0
 62
     3
100
AcDbCircle
 10
-711.9628908626319
 20
-182.7736749753348
 30
0.0
 40
15.0
100
AcDbArc
 50
310.0000000000003
 51
355.0000000000006
  0
ARC
  5
237
330
1F
100
AcDbEntity
  8
0
 62
     3
100
AcDbCircle
 10
-711.1976478503245
 20
-227.8208149725765
 30
0.0
 40
20.0
100
AcDbArc
 50
129.9999999999997
 51
174.9999999999987
  0
ARC
  5
238
330
1F
100
AcDbEntity
  8
0
 62
     3
100
AcDbCircle
 10
-457.1855275029432
 20
-291.2705714372569
 30
0.0
 40
6.0
100
AcDbArc
 50
0.0
 51
180.0
  0
LINE
  5
239
330
1F
100
AcDbEntity
  8
0
 62
     3
100
AcDbLine
 10
-451.1855275029432
 20
-291.2705714372569
 30
0.0
 11
-451.1855275029432
 21
-300.2705714372569
 31
0.0
  0
LINE
  5
23A
330
1F
100
AcDbEntity
  8
0
 62
     3
100
AcDbLine
 10
-463.1855275029432
 20
-291.2705714372569
 30
0.0
 11
-463.1855275029432
 21
-300.2705714372569
 31
0.0
  0
ARC
  5
23B
330
1F
100
AcDbEntity
  8
0
 62
     3
100
AcDbCircle
 10
-456.4090703676357
 20
-291.2705714372569
 30
0.0
 40
6.0
100
AcDbArc
 50
93.70990152417978
 51
180.0
  0
LINE
  5
23C
330
1F
100
AcDbEntity
  8
0
 62
     3
100
AcDbLine
 10
-462.4090703676357
 20
-291.2705714372569
 30
0.0
 11
-462.4090703676357
 21
-300.2705714372569
 31
0.0
  0
LINE
  5
23D
330
1F
100
AcDbEntity
  8
0
 62
     3
100
AcDbLine
 10
-446.4641690523798
 20
-280.2705714372571
 30
0.0
 11
-446.4641690523793
 21
-300.2705714372569
 31
0.0
  0
LINE
  5
23E
330
1F
100
AcDbEntity
  8
0
 62
     3
100
AcDbLine
 10
-467.6548145496325
 20
-300.2705714372569
 30
0.0
 11
-467.6548145496325
 21
-280.270571437257
 31
0.0
  0
LINE
  5
23F
330
1F
100
AcDbEntity
  8
0
 62
     3
100
AcDbLine
 10
-442.9819698910342
 20
-277.2705714372572
 30
0.0
 11
-442.9819698910342
 21
-298.2705714372569
 31
0.0
  0
LINE
  5
240
330
1F
100
AcDbEntity
  8
0
 62
     3
100
AcDbLine
 10
-557.9980231512327
 20
-182.2705714372574
 30
0.0
 11
-557.9980231512327
 21
-102.2705714372574
 31
0.0
  0
LINE
  5
241
330
1F
100
AcDbEntity
  8
0
 62
     3
100
AcDbLine
 10
-557.9980231512327
 20
-102.2705714372574
 30
0.0
 11
-579.9980231512325
 21
-102.2705714372574
 31
0.0
  0
LINE
  5
242
330
1F
100
AcDbEntity
  8
0
 62
     3
100
AcDbLine
 10
-257.9980231512325
 20
-182.2705714372569
 30
0.0
 11
-257.9980231512326
 21
-102.2705714372569
 31
0.0
  0
LINE
  5
243
330
1F
100
AcDbEntity
  8
0
 62
     3
100
AcDbLine
 10
-235.9980231512326
 20
-182.2705714372571
 30
0.0
 11
-235.9980231512326
 21
-102.270571437257
 31
0.0
  0
LINE
  5
244
330
1F
100
AcDbEntity
  8
0
 62
     3
100
AcDbLine
 10
-257.9980231512326
 20
-102.2705714372569
 30
0.0
 11
-235.9980231512326
 21
-102.270571437257
 31
0.0
  0
LINE
  5
245
330
1F
100
AcDbEntity
  8
0
 62
     3
100
AcDbLine
 10
24.00197684876736
 20
-220.2705714372569
 30
0.0
 11
24.00197684876736
 21
-104.2705714372569
 31
0.0
  0
LINE
  5
246
330
1F
100
AcDbEntity
  8
0
 62
     3
100
AcDbLine
 10
24.00197684876736
 20
-104.2705714372569
 30
0.0
 11
-235.9980231512326
 21
-104.2705714372569
 31
0.0
  0
LINE
  5
247
330
1F
100
AcDbEntity
  8
0
 62
     3
100
AcDbLine
 10
-240.9980231512326
 20
-182.2705714372569
 30
0.0
 11
-240.9980231512326
 21
-220.2705714372569
 31
0.0
  0
LINE
  5
248
330
1F
100
AcDbEntity
  8
0
 62
     3
100
AcDbLine
 10
-175.9980231512327
 20
-169.2705714372569
 30
0.0
 11
-175.9980231512326
 21
-117.2705714372569
 31
0.0
  0
LINE
  5
249
330
1F
100
AcDbEntity
  8
0
 62
     3
100
AcDbLine
 10
4.001976848767399
 20
-184.2705714372569
 30
0.0
 11
-160.9980231512326
 21
-184.2705714372569
 31
0.0
  0
ARC
  5
24A
330
1F
100
AcDbEntity
  8
0
 62
     3
100
AcDbCircle
 10
-160.9980231512327
 20
-169.2705714372569
 30
0.0
 40
15.0
100
AcDbArc
 50
180.0
 51
269.9999999999999
  0
LINE
  5
24B
330
1F
100
AcDbEntity
  8
0
 62
     3
100
AcDbLine
 10
4.001976848767384
 20
-154.2705714372568
 30
0.0
 11
-165.9980231512324
 21
-154.2705714372569
 31
0.0
  0
ARC
  5
24C
330
1F
100
AcDbEntity
  8
0
 62
     3
100
AcDbCircle
 10
-165.9980231512325
 20
-144.2705714372569
 30
0.0
 40
10.0
100
AcDbArc
 50
180.0
 51
270.0
  0
LINE
  5
24D
330
1F
100
AcDbEntity
  8
0
 62
     3
100
AcDbLine
 10
24.00197684876736
 20
-107.2705714372569
 30
0.0
 11
-182.9980231512316
 21
-107.2705714372569
 31
0.0
  0
ARC
  5
24E
330
1F
100
AcDbEntity
  8
0
 62
     3
100
AcDbCircle
 10
-185.9980231512326
 20
-117.2705714372569
 30
0.0
 40
10.0
100
AcDbArc
 50
0.0
 51
70.28997726583685
  0
ARC
  5
24F
330
1F
100
AcDbEntity
  8
0
 62
     3
100
AcDbCircle
 10
-182.9980231512316
 20
-104.2705714372569
 30
0.0
 40
3.0
100
AcDbArc
 50
180.0
 51
269.9999999999999
  0
LINE
  5
250
330
1F
100
AcDbEntity
  8
0
 62
     3
100
AcDbLine
 10
14.00197684876736
 20
-204.2705714372569
 30
0.0
 11
14.00197684876738
 21
-164.2705714372568
 31
0.0
  0
ARC
  5
251
330
1F
100
AcDbEntity
  8
0
 62
     3
100
AcDbCircle
 10
4.001976848767399
 20
-194.2705714372569
 30
0.0
 40
10.0
100
AcDbArc
 50
0.0
 51
89.99999999999999
  0
ARC
  5
252
330
1F
100
AcDbEntity
  8
0
 62
     3
100
AcDbCircle
 10
4.001976848767384
 20
-164.2705714372568
 30
0.0
 40
10.0
100
AcDbArc
 50
0.0
 51
90.00000000000001
  0
LINE
  5
253
330
1F
100
AcDbEntity
  8
0
 62
     3
100
AcDbLine
 10
506.5300914130066
 20
-101.5205714372568
 30
0.0
 11
506.5300914130071
 21
-181.5205714372567
 31
0.0
  0
LINE
  5
254
330
1F
100
AcDbEntity
  8
0
 62
     3
100
AcDbLine
 10
506.5300914130066
 20
-101.5205714372568
 30
0.0
 11
762.5300914130066
 21
-101.5205714372568
 31
0.0
  0
LINE
  5
255
330
1F
100
AcDbEntity
  8
0
 62
     3
100
AcDbLine
 10
148.0019768487674
 20
-191.2705714372565
 30
0.0
 11
148.0019768487674
 21
-121.2705714372569
 31
0.0
  0
LINE
  5
256
330
1F
100
AcDbEntity
  8
0
 62
     3
100
AcDbLine
 10
46.00197684876736
 20
-181.7705714372569
 30
0.0
 11
24.00197684876736
 21
-181.7705714372569
 31
0.0
  0
LINE
  5
257
330
1F
100
AcDbEntity
  8
0
 62
     3
100
AcDbLine
 10
137.0019768487674
 20
-107.2705714372569
 30
0.0
 11
24.00197684876736
 21
-107.2705714372569
 31
0.0
  0
LINE
  5
258
330
1F
100
AcDbEntity
  8
0
 62
     3
100
AcDbLine
 10
145.0019768487674
 20
-198.270571437257
 30
0.0
 11
145.0019768487674
 21
-115.2705714372569
 31
0.0
  0
ARC
  5
259
330
1F
100
AcDbEntity
  8
0
 62
     3
100
AcDbCircle
 10
137.0019768487674
 20
-115.2705714372569
 30
0.0
 40
8.0
100
AcDbArc
 50
0.0
 51
89.99999999999999
  0
LINE
  5
25A
330
1F
100
AcDbEntity
  8
0
 62
     3
100
AcDbLine
 10
148.0019768487674
 20
-121.2705714372569
 30
0.0
 11
145.0019768487674
 21
-121.2705714372569
 31
0.0
  0
LINE
  5
25B
330
1F
100
AcDbEntity
  8
0
 62
     3
100
AcDbLine
 10
142.0019768487673
 20
-201.270571437257
 30
0.0
 11
126.0019768487672
 21
-201.2705714372569
 31
0.0
  0
LINE
  5
25C
330
1F
100
AcDbEntity
  8
0
 62
     3
100
AcDbLine
 10
123.0019768487672
 20
-198.2705714372568
 30
0.0
 11
123.0019768487672
 21
-178.7705714372569
 31
0.0
  0
LINE
  5
25D
330
1F
100
AcDbEntity
  8
0
 62
     3
100
AcDbLine
 10
148.0019768487674
 20
-191.2705714372569
 30
0.0
 11
145.0019768487674
 21
-191.2705714372569
 31
0.0
  0
LINE
  5
25E
330
1F
100
AcDbEntity
  8
0
 62
     3
100
AcDbLine
 10
142.0019768487674
 20
-178.7705714372569
 30
0.0
 11
49.00197684876736
 21
-178.7705714372569
 31
0.0
  0
LINE
  5
25F
330
1F
100
AcDbEntity
  8
0
 62
     3
100
AcDbLine
 10
46.00197684876736
 20
-181.7705714372569
 30
0.0
 11
46.00197684876736
 21
-113.2705714372569
 31
0.0
  0
ARC
  5
260
330
1F
100
AcDbEntity
  8
0
 62
     3
100
AcDbCircle
 10
52.00197684876736
 20
-113.2705714372569
 30
0.0
 40
6.0
100
AcDbArc
 50
89.99999999999999
 51
180.0
  0
LINE
  5
261
330
1F
100
AcDbEntity
  8
0
 62
     3
100
AcDbLine
 10
245.0019768487676
 20
-166.5205714372568
 30
0.0
 11
245.0019768487676
 21
-146.0205714372569
 31
0.0
  0
LINE
  5
262
330
1F
100
AcDbEntity
  8
0
 62
     3
100
AcDbLine
 10
243.0019768487676
 20
-144.0205714372569
 30
0.0
 11
245.0019768487676
 21
-146.0205714372569
 31
0.0
  0
LINE
  5
263
330
1F
100
AcDbEntity
  8
0
 62
     3
100
AcDbLine
 10
245.0019768487676
 20
-166.5205714372568
 30
0.0
 11
243.0019768487676
 21
-168.5205714372568
 31
0.0
  0
ARC
  5
264
330
1F
100
AcDbEntity
  8
0
 62
     3
100
AcDbCircle
 10
241.653518241071
 20
-146.5043277192983
 30
0.0
 40
3.230362858944397
100
AcDbArc
 50
294.6725994690231
 51
12.01872623698597
  0
ARC
  5
265
330
1F
100
AcDbEntity
  8
0
 62
     3
100
AcDbCircle
 10
241.6535182410709
 20
-166.0368151552154
 30
0.0
 40
3.23036285894441
100
AcDbArc
 50
347.9812737630145
 51
65.32740053097666
  0
ARC
  5
266
330
1F
100
AcDbEntity
  8
0
 62
     3
100
AcDbCircle
 10
236.1800923163904
 20
-156.2705714372568
 30
0.0
 40
8.694867532377208
100
AcDbArc
 50
321.6825447559753
 51
38.31745524402476
  0
LINE
  5
267
330
1F
100
AcDbEntity
  8
0
 62
     3
100
AcDbLine
 10
243.0019768487676
 20
-149.4397840013396
 30
0.0
 11
243.0019768487676
 21
-150.8795963090912
 31
0.0
  0
LINE
  5
268
330
1F
100
AcDbEntity
  8
0
 62
     3
100
AcDbLine
 10
243.0019768487676
 20
-163.101358873174
 30
0.0
 11
243.0019768487676
 21
-161.6615465654224
 31
0.0
  0
LINE
  5
269
330
1F
100
AcDbEntity
  8
0
 62
     3
100
AcDbLine
 10
243.0019768487676
 20
-149.4397840013396
 30
0.0
 11
220.0019768487677
 21
-149.4397840013396
 31
0.0
  0
LINE
  5
26A
330
1F
100
AcDbEntity
  8
0
 62
     3
100
AcDbLine
 10
243.0019768487676
 20
-150.8795963090912
 30
0.0
 11
220.0019768487677
 21
-150.8795963090912
 31
0.0
  0
LINE
  5
26B
330
1F
100
AcDbEntity
  8
0
 62
     3
100
AcDbLine
 10
243.0019768487676
 20
-161.6615465654224
 30
0.0
 11
220.0019768487677
 21
-161.6615465654224
 31
0.0
  0
LINE
  5
26C
330
1F
100
AcDbEntity
  8
0
 62
     3
100
AcDbLine
 10
220.0019768487677
 20
-163.101358873174
 30
0.0
 11
243.0019768487676
 21
-163.101358873174
 31
0.0
  0
LINE
  5
26D
330
1F
100
AcDbEntity
  8
0
 62
     3
100
AcDbLine
 10
220.0019768487677
 20
-168.5205714372568
 30
0.0
 11
243.0019768487676
 21
-168.5205714372568
 31
0.0
  0
LINE
  5
26E
330
1F
100
AcDbEntity
  8
0
 62
     3
100
AcDbLine
 10
220.0019768487677
 20
-144.0205714372569
 30
0.0
 11
243.0019768487676
 21
-144.0205714372569
 31
0.0
  0
LINE
  5
26F
330
1F
100
AcDbEntity
  8
0
 62
     3
100
AcDbLine
 10
220.0019768487677
 20
-168.5205714372568
 30
0.0
 11
220.0019768487677
 21
-144.0205714372569
 31
0.0
  0
LINE
  5
270
330
1F
100
AcDbEntity
  8
0
 62
     3
100
AcDbLine
 10
216.5378663503749
 20
-143.2705714372569
 30
0.0
 11
188.3019768487677
 21
-143.2705714372569
 31
0.0
  0
LINE
  5
271
330
1F
100
AcDbEntity
  8
0
 62
     3
100
AcDbLine
 10
187.7019768487679
 20
-143.2705714372569
 30
0.0
 11
175.3019768487677
 21
-143.2705714372569
 31
0.0
  0
LINE
  5
272
330
1F
100
AcDbEntity
  8
0
 62
     3
100
AcDbLine
 10
174.7019768487679
 20
-143.2705714372569
 30
0.0
 11
162.3019768487677
 21
-143.2705714372569
 31
0.0
  0
LINE
  5
273
330
1F
100
AcDbEntity
  8
0
 62
     3
100
AcDbLine
 10
161.7019768487679
 20
-143.2705714372569
 30
0.0
 11
148.0019768487674
 21
-143.2705714372569
 31
0.0
  0
LINE
  5
274
330
1F
100
AcDbEntity
  8
0
 62
     3
100
AcDbLine
 10
148.0019768487674
 20
-169.2705714372568
 30
0.0
 11
161.7019768487679
 21
-169.2705714372568
 31
0.0
  0
LINE
  5
275
330
1F
100
AcDbEntity
  8
0
 62
     3
100
AcDbLine
 10
162.3019768487677
 20
-169.2705714372568
 30
0.0
 11
174.7019768487679
 21
-169.2705714372568
 31
0.0
  0
LINE
  5
276
330
1F
100
AcDbEntity
  8
0
 62
     3
100
AcDbLine
 10
175.3019768487677
 20
-169.2705714372568
 30
0.0
 11
187.7019768487679
 21
-169.2705714372568
 31
0.0
  0
LINE
  5
277
330
1F
100
AcDbEntity
  8
0
 62
     3
100
AcDbLine
 10
188.3019768487677
 20
-169.2705714372568
 30
0.0
 11
216.5378663503749
 21
-169.2705714372568
 31
0.0
  0
ARC
  5
278
330
1F
100
AcDbEntity
  8
0
 62
     3
100
AcDbCircle
 10
162.0019768487677
 20
-143.2705714372569
 30
0.0
 40
0.2999999999999065
100
AcDbArc
 50
180.0
 51
360.0
  0
ARC
  5
279
330
1F
100
AcDbEntity
  8
0
 62
     3
100
AcDbCircle
 10
188.0019768487677
 20
-143.270571437257
 30
0.0
 40
0.2999999999999065
100
AcDbArc
 50
180.0
 51
360.0
  0
ARC
  5
27A
330
1F
100
AcDbEntity
  8
0
 62
     3
100
AcDbCircle
 10
175.0019768487678
 20
-143.270571437257
 30
0.0
 40
0.2999999999999065
100
AcDbArc
 50
180.0
 51
360.0
  0
ARC
  5
27B
330
1F
100
AcDbEntity
  8
0
 62
     3
100
AcDbCircle
 10
162.0019768487677
 20
-169.2705714372567
 30
0.0
 40
0.2999999999999065
100
AcDbArc
 50
0.0
 51
180.0
  0
ARC
  5
27C
330
1F
100
AcDbEntity
  8
0
 62
     3
100
AcDbCircle
 10
188.0019768487677
 20
-169.2705714372567
 30
0.0
 40
0.2999999999999065
100
AcDbArc
 50
0.0
 51
180.0
  0
ARC
  5
27D
330
1F
100
AcDbEntity
  8
0
 62
     3
100
AcDbCircle
 10
175.0019768487678
 20
-169.2705714372567
 30
0.0
 40
0.2999999999999065
100
AcDbArc
 50
0.0
 51
180.0
  0
LINE
  5
27E
330
1F
100
AcDbEntity
  8
0
 62
     3
100
AcDbLine
 10
188.3019768487677
 20
-169.2705714372568
 30
0.0
 11
188.3019768487677
 21
-143.2705714372569
 31
0.0
  0
LINE
  5
27F
330
1F
100
AcDbEntity
  8
0
 62
     3
100
AcDbLine
 10
187.7019768487679
 20
-143.2705714372569
 30
0.0
 11
187.7019768487679
 21
-169.2705714372568
 31
0.0
  0
LINE
  5
280
330
1F
100
AcDbEntity
  8
0
 62
     3
100
AcDbLine
 10
175.3019768487677
 20
-169.2705714372568
 30
0.0
 11
175.3019768487677
 21
-143.2705714372569
 31
0.0
  0
LINE
  5
281
330
1F
100
AcDbEntity
  8
0
 62
     3
100
AcDbLine
 10
174.7019768487679
 20
-143.2705714372569
 30
0.0
 11
174.7019768487679
 21
-169.2705714372568
 31
0.0
  0
LINE
  5
282
330
1F
100
AcDbEntity
  8
0
 62
     3
100
AcDbLine
 10
162.3019768487677
 20
-169.2705714372568
 30
0.0
 11
162.3019768487677
 21
-143.2705714372569
 31
0.0
  0
LINE
  5
283
330
1F
100
AcDbEntity
  8
0
 62
     3
100
AcDbLine
 10
161.7019768487679
 20
-143.2705714372569
 30
0.0
 11
161.7019768487679
 21
-169.2705714372568
 31
0.0
  0
LINE
  5
284
330
1F
100
AcDbEntity
  8
0
 62
     3
100
AcDbLine
 10
216.5378663503749
 20
-143.2705714372569
 30
0.0
 11
216.5378663503749
 21
-169.2705714372568
 31
0.0
  0
LINE
  5
285
330
1F
100
AcDbEntity
  8
0
 62
     3
100
AcDbLine
 10
216.5378663503749
 20
-169.2705714372568
 30
0.0
 11
220.0019768487677
 21
-168.5205714372568
 31
0.0
  0
LINE
  5
286
330
1F
100
AcDbEntity
  8
0
 62
     3
100
AcDbLine
 10
216.5378663503749
 20
-143.2705714372569
 30
0.0
 11
220.0019768487677
 21
-144.0205714372569
 31
0.0
  0
LINE
  5
287
330
1F
100
AcDbEntity
  8
0
 62
     3
100
AcDbLine
 10
252.0019768487676
 20
-166.5205714372568
 30
0.0
 11
252.0019768487676
 21
-146.0205714372569
 31
0.0
  0
LINE
  5
288
330
1F
100
AcDbEntity
  8
0
 62
     3
100
AcDbLine
 10
267.0019768487676
 20
-166.5205714372568
 30
0.0
 11
267.0019768487676
 21
-146.0205714372569
 31
0.0
  0
LINE
  5
289
330
1F
100
AcDbEntity
  8
0
 62
     3
100
AcDbLine
 10
245.0019768487676
 20
-145.7705714372569
 30
0.0
 11
267.0019768487676
 21
-145.7705714372569
 31
0.0
  0
LINE
  5
28A
330
1F
100
AcDbEntity
  8
0
 62
     3
100
AcDbLine
 10
245.0019768487676
 20
-166.7705714372568
 30
0.0
 11
267.0019768487676
 21
-166.7705714372568
 31
0.0
  0
CIRCLE
  5
28B
330
1F
100
AcDbEntity
  8
0
 62
     3
100
AcDbCircle
 10
634.5300914130069
 20
-156.2705714372569
 30
0.0
 40
35.0
  0
ARC
  5
28C
330
1F
100
AcDbEntity
  8
0
 62
     3
100
AcDbCircle
 10
634.5300914130069
 20
-156.2705714372569
 30
0.0
 40
45.0
100
AcDbArc
 50
216.2215466198351
 51
269.9999999999999
  0
LINE
  5
28D
330
1F
100
AcDbEntity
  8
0
 62
     3
100
AcDbLine
 10
579.5300914130069
 20
-156.2705714372567
 30
0.0
 11
579.5300914130071
 21
-175.7705714372569
 31
0.0
  0
LINE
  5
28E
330
1F
100
AcDbEntity
  8
0
 62
     3
100
AcDbLine
 10
542.0300914130069
 20
-181.7705714372567
 30
0.0
 11
589.5300914130069
 21
-181.7705714372567
 31
0.0
  0
LINE
  5
28F
330
1F
100
AcDbEntity
  8
0
 62
     3
100
AcDbLine
 10
557.0300914130069
 20
-104.2705714372569
 30
0.0
 11
634.5300914130069
 21
-104.2705714372569
 31
0.0
  0
LINE
  5
290
330
1F
100
AcDbEntity
  8
0
 62
     3
100
AcDbLine
 10
542.0300914130069
 20
-122.2705714372568
 30
0.0
 11
542.0300914130069
 21
-181.7705714372567
 31
0.0
  0
LINE
  5
291
330
1F
100
AcDbEntity
  8
0
 62
     3
100
AcDbLine
 10
582.5300914130071
 20
-178.7705714372569
 30
0.0
 11
590.1594930397598
 21
-178.7705714372569
 31
0.0
  0
ARC
  5
292
330
1F
100
AcDbEntity
  8
0
 62
     3
100
AcDbCircle
 10
634.5300914130071
 20
-156.2705714372569
 30
0.0
 40
45.0
100
AcDbArc
 50
270.0000000000001
 51
323.7784533801648
  0
LINE
  5
293
330
1F
100
AcDbEntity
  8
0
 62
     3
100
AcDbLine
 10
689.5300914130071
 20
-156.2705714372571
 30
0.0
 11
689.5300914130069
 21
-175.770571437257
 31
0.0
  0
LINE
  5
294
330
1F
100
AcDbEntity
  8
0
 62
     3
100
AcDbLine
 10
727.0300914130071
 20
-181.7705714372569
 30
0.0
 11
679.5300914130069
 21
-181.7705714372568
 31
0.0
  0
LINE
  5
295
330
1F
100
AcDbEntity
  8
0
 62
     3
100
AcDbLine
 10
712.0300914130071
 20
-104.270571437257
 30
0.0
 11
634.5300914130071
 21
-104.2705714372569
 31
0.0
  0
LINE
  5
296
330
1F
100
AcDbEntity
  8
0
 62
     3
100
AcDbLine
 10
686.5300914130069
 20
-178.7705714372569
 30
0.0
 11
678.9006897862541
 21
-178.7705714372569
 31
0.0
  0
CIRCLE
  5
297
330
1F
100
AcDbEntity
  8
0
 62
     3
100
AcDbCircle
 10
634.5300914130069
 20
-156.2705714372569
 30
0.0
 40
13.0
  0
LINE
  5
298
330
1F
100
AcDbEntity
  8
0
 62
     3
100
AcDbLine
 10
509.5300914130069
 20
-104.270571437257
 30
0.0
 11
509.5300914130069
 21
-220.2705714372569
 31
0.0
  0
LINE
  5
299
330
1F
100
AcDbEntity
  8
0
 62
     3
100
AcDbLine
 10
509.5300914130066
 20
-204.2705714372569
 30
0.0
 11
541.5300914130071
 21
-204.2705714372568
 31
0.0
  0
LINE
  5
29A
330
1F
100
AcDbEntity
  8
0
 62
     3
100
AcDbLine
 10
509.5300914130066
 20
-104.2705714372569
 30
0.0
 11
557.0300914130069
 21
-104.2705714372569
 31
0.0
  0
LINE
  5
29B
330
1F
100
AcDbEntity
  8
0
 62
     3
100
AcDbLine
 10
506.5300914130071
 20
-181.5205714372566
 30
0.0
 11
509.5300914130069
 21
-181.5205714372571
 31
0.0
  0
LINE
  5
29C
330
1F
100
AcDbEntity
  8
0
 62
     3
100
AcDbLine
 10
514.5300914130071
 20
-162.2705714372573
 30
0.0
 11
514.5300914130075
 21
-177.2705714372571
 31
0.0
  0
LINE
  5
29D
330
1F
100
AcDbEntity
  8
0
 62
     3
100
AcDbLine
 10
532.0300914130066
 20
-152.2705714372568
 30
0.0
 11
524.5300914130069
 21
-152.2705714372573
 31
0.0
  0
ARC
  5
29E
330
1F
100
AcDbEntity
  8
0
 62
     3
100
AcDbCircle
 10
524.5300914130071
 20
-162.2705714372573
 30
0.0
 40
10.0
100
AcDbArc
 50
90.00000000000074
 51
180.0
  0
ARC
  5
29F
330
1F
100
AcDbEntity
  8
0
 62
     3
100
AcDbCircle
 10
532.0300914130069
 20
-142.2705714372568
 30
0.0
 40
10.0
100
AcDbArc
 50
269.9999999999996
 51
360.0
  0
ARC
  5
2A0
330
1F
100
AcDbEntity
  8
0
 62
     3
100
AcDbCircle
 10
509.5300914130073
 20
-169.2705714372572
 30
0.0
 40
5.0
100
AcDbArc
 50
269.9999999999824
 51
360.0
  0
ARC
  5
2A1
330
1F
100
AcDbEntity
  8
0
 62
     3
100
AcDbCircle
 10
509.5300914130075
 20
-177.2705714372571
 30
0.0
 40
5.0
100
AcDbArc
 50
270.0000000000013
 51
360.0
  0
LINE
  5
2A2
330
1F
100
AcDbEntity
  8
0
 62
     3
100
AcDbLine
 10
509.5300914130066
 20
-220.2705714372569
 30
0.0
 11
554.5300914130069
 21
-220.2705714372569
 31
0.0
  0
LINE
  5
2A3
330
1F
100
AcDbEntity
  8
0
 62
     3
100
AcDbLine
 10
554.5300914130069
 20
-220.2705714372569
 30
0.0
 11
554.5300914130069
 21
-204.2705714372567
 31
0.0
  0
LINE
  5
2A4
330
1F
100
AcDbEntity
  8
0
 62
     3
100
AcDbLine
 10
762.5300914130073
 20
-101.5205714372569
 30
0.0
 11
762.5300914130069
 21
-181.5205714372569
 31
0.0
  0
LINE
  5
2A5
330
1F
100
AcDbEntity
  8
0
 62
     3
100
AcDbLine
 10
727.0300914130071
 20
-122.2705714372568
 30
0.0
 11
727.0300914130071
 21
-181.7705714372569
 31
0.0
  0
LINE
  5
2A6
330
1F
100
AcDbEntity
  8
0
 62
     3
100
AcDbLine
 10
759.5300914130071
 20
-104.2705714372572
 30
0.0
 11
759.5300914130071
 21
-220.2705714372571
 31
0.0
  0
LINE
  5
2A7
330
1F
100
AcDbEntity
  8
0
 62
     3
100
AcDbLine
 10
759.5300914130073
 20
-204.270571437257
 30
0.0
 11
727.5300914130069
 21
-204.2705714372569
 31
0.0
  0
LINE
  5
2A8
330
1F
100
AcDbEntity
  8
0
 62
     3
100
AcDbLine
 10
759.5300914130073
 20
-104.270571437257
 30
0.0
 11
712.0300914130071
 21
-104.270571437257
 31
0.0
  0
LINE
  5
2A9
330
1F
100
AcDbEntity
  8
0
 62
     3
100
AcDbLine
 10
762.5300914130069
 20
-181.5205714372568
 30
0.0
 11
759.5300914130069
 21
-181.5205714372573
 31
0.0
  0
LINE
  5
2AA
330
1F
100
AcDbEntity
  8
0
 62
     3
100
AcDbLine
 10
754.5300914130069
 20
-162.2705714372574
 30
0.0
 11
754.5300914130064
 21
-177.2705714372573
 31
0.0
  0
LINE
  5
2AB
330
1F
100
AcDbEntity
  8
0
 62
     3
100
AcDbLine
 10
737.0300914130073
 20
-152.2705714372569
 30
0.0
 11
744.5300914130071
 21
-152.2705714372574
 31
0.0
  0
ARC
  5
2AC
330
1F
100
AcDbEntity
  8
0
 62
     3
100
AcDbCircle
 10
744.5300914130069
 20
-162.2705714372574
 30
0.0
 40
10.0
100
AcDbArc
 50
360.0
 51
89.99999999999926
  0
ARC
  5
2AD
330
1F
100
AcDbEntity
  8
0
 62
     3
100
AcDbCircle
 10
737.0300914130071
 20
-142.2705714372569
 30
0.0
 40
10.0
100
AcDbArc
 50
180.0
 51
270.0000000000004
  0
ARC
  5
2AE
330
1F
100
AcDbEntity
  8
0
 62
     3
100
AcDbCircle
 10
759.5300914130066
 20
-169.2705714372574
 30
0.0
 40
5.0
100
AcDbArc
 50
180.0
 51
270.0000000000176
  0
ARC
  5
2AF
330
1F
100
AcDbEntity
  8
0
 62
     3
100
AcDbCircle
 10
759.5300914130064
 20
-177.2705714372573
 30
0.0
 40
5.0
100
AcDbArc
 50
180.0
 51
269.9999999999988
  0
LINE
  5
2B0
330
1F
100
AcDbEntity
  8
0
 62
     3
100
AcDbLine
 10
759.5300914130073
 20
-220.2705714372571
 30
0.0
 11
714.5300914130069
 21
-220.270571437257
 31
0.0
  0
LINE
  5
2B1
330
1F
100
AcDbEntity
  8
0
 62
     3
100
AcDbLine
 10
714.5300914130069
 20
-220.270571437257
 30
0.0
 11
714.5300914130069
 21
-204.2705714372568
 31
0.0
  0
ARC
  5
2B2
330
1F
100
AcDbEntity
  8
0
 62
     3
100
AcDbCircle
 10
591.5300914130064
 20
-185.2705714372568
 30
0.0
 40
8.0
100
AcDbArc
 50
272.8659839826027
 51
5.455891272144925
  0
ARC
  5
2B3
330
1F
100
AcDbEntity
  8
0
 62
     3
100
AcDbCircle
 10
677.5300914130075
 20
-185.2705714372569
 30
0.0
 40
8.0
100
AcDbArc
 50
174.5441087278551
 51
267.1340160173973
  0
ARC
  5
2B4
330
1F
100
AcDbEntity
  8
0
 62
     3
100
AcDbCircle
 10
-614.9980231512325
 20
-104.2705714372569
 30
0.0
 40
5.0
100
AcDbArc
 50
270.0
 51
360.0
  0
LINE
  5
2B5
330
1F
100
AcDbEntity
  8
0
 62
     3
100
AcDbLine
 10
85.00197684876741
 20
381.2282652052708
 30
0.0
 11
85.00197684876741
 21
343.7282652052708
 31
0.0
  0
LINE
  5
2B6
330
1F
100
AcDbEntity
  8
0
 62
     3
100
AcDbLine
 10
85.00197684876741
 20
233.7282652052708
 30
0.0
 11
85.00197684876741
 21
196.2282652052708
 31
0.0
  0
LINE
  5
2B7
330
1F
100
AcDbEntity
  8
0
 62
     3
100
AcDbLine
 10
-734.9980231512325
 20
196.2282652052709
 30
0.0
 11
-734.9980231512325
 21
277.7282652052708
 31
0.0
  0
LINE
  5
2B8
330
1F
100
AcDbEntity
  8
0
 62
     3
100
AcDbLine
 10
-734.9980231512325
 20
299.7282652052708
 30
0.0
 11
-734.9980231512325
 21
381.2282652052708
 31
0.0
  0
ARC
  5
2B9
330
1F
100
AcDbEntity
  8
0
 62
     3
100
AcDbCircle
 10
-521.5050651719364
 20
481.2282652052708
 30
0.0
 40
60.0
100
AcDbArc
 50
269.9999999999999
 51
298.9550243718597
  0
LINE
  5
2BA
330
1F
100
AcDbEntity
  8
0
 62
     3
100
AcDbLine
 10
-694.9980231512325
 20
421.2282652052708
 30
0.0
 11
-521.5050651719364
 21
421.2282652052708
 31
0.0
  0
ARC
  5
2BB
330
1F
100
AcDbEntity
  8
0
 62
     3
100
AcDbCircle
 10
-694.9980231512325
 20
381.2282652052708
 30
0.0
 40
40.0
100
AcDbArc
 50
89.99999999999999
 51
180.0
  0
LINE
  5
2BC
330
1F
100
AcDbEntity
  8
0
 62
     3
100
AcDbLine
 10
-694.9980231512325
 20
156.2282652052709
 30
0.0
 11
-521.5050651719366
 21
156.2282652052709
 31
0.0
  0
ARC
  5
2BD
330
1F
100
AcDbEntity
  8
0
 62
     3
100
AcDbCircle
 10
-521.5050651719366
 20
96.22826520527077
 30
0.0
 40
60.0
100
AcDbArc
 50
61.04497562814009
 51
89.99999999999999
  0
ARC
  5
2BE
330
1F
100
AcDbEntity
  8
0
 62
     3
100
AcDbCircle
 10
-694.9980231512325
 20
196.2282652052709
 30
0.0
 40
40.0
100
AcDbArc
 50
180.0
 51
269.9999999999999
  0
LINE
  5
2BF
330
1F
100
AcDbEntity
  8
0
 62
     3
100
AcDbLine
 10
-78.49098113052838
 20
421.2282652052708
 30
0.0
 11
45.00197684876741
 21
421.2282652052708
 31
0.0
  0
ARC
  5
2C0
330
1F
100
AcDbEntity
  8
0
 62
     3
100
AcDbCircle
 10
-78.49098113052838
 20
481.2282652052708
 30
0.0
 40
60.0
100
AcDbArc
 50
241.04497562814
 51
269.9999999999999
  0
ARC
  5
2C1
330
1F
100
AcDbEntity
  8
0
 62
     3
100
AcDbCircle
 10
45.00197684876741
 20
381.2282652052708
 30
0.0
 40
40.0
100
AcDbArc
 50
0.0
 51
89.99999999999999
  0
LINE
  5
2C2
330
1F
100
AcDbEntity
  8
0
 62
     3
100
AcDbLine
 10
-78.49098113052838
 20
156.2282652052708
 30
0.0
 11
45.00197684876741
 21
156.2282652052708
 31
0.0
  0
ARC
  5
2C3
330
1F
100
AcDbEntity
  8
0
 62
     3
100
AcDbCircle
 10
-78.49098113052838
 20
96.22826520527083
 30
0.0
 40
60.0
100
AcDbArc
 50
89.99999999999999
 51
118.9550243718598
  0
ARC
  5
2C4
330
1F
100
AcDbEntity
  8
0
 62
     3
100
AcDbCircle
 10
45.00197684876741
 20
196.2282652052708
 30
0.0
 40
40.0
100
AcDbArc
 50
269.9999999999999
 51
360.0
  0
ARC
  5
2C5
330
1F
100
AcDbEntity
  8
0
 62
     3
100
AcDbCircle
 10
-414.9980231512325
 20
288.7282652052708
 30
0.0
 40
160.0
100
AcDbArc
 50
241.04497562814
 51
250.0728194092185
  0
ARC
  5
2C6
330
1F
100
AcDbEntity
  8
0
 62
     3
100
AcDbCircle
 10
-470.5525920284998
 20
135.4876378349126
 30
0.0
 40
3.0
100
AcDbArc
 50
345.0000000000005
 51
70.07281940921843
  0
CIRCLE
  5
2C7
330
1F
100
AcDbEntity
  8
0
 62
     3
100
AcDbCircle
 10
-414.9980231512325
 20
288.7282652052708
 30
0.0
 40
17.5
  0
LINE
  5
2C8
330
1F
100
AcDbEntity
  8
0
 62
     3
100
AcDbLine
 10
-403.9980231512325
 20
128.7282652052707
 30
0.0
 11
-184.9980231512324
 21
128.7282652052707
 31
0.0
  0
ARC
  5
2C9
330
1F
100
AcDbEntity
  8
0
 62
     3
100
AcDbCircle
 10
-414.9980231512325
 20
423.7282652052708
 30
0.0
 40
11.0
100
AcDbArc
 50
180.0
 51
360.0
  0
ARC
  5
2CA
330
1F
100
AcDbEntity
  8
0
 62
     3
100
AcDbCircle
 10
-414.9980231512325
 20
423.7282652052708
 30
0.0
 40
22.5
100
AcDbArc
 50
180.0
 51
360.0
  0
ARC
  5
2CB
330
1F
100
AcDbEntity
  8
0
 62
     3
100
AcDbCircle
 10
-414.9980231512325
 20
153.7282652052708
 30
0.0
 40
11.0
100
AcDbArc
 50
0.0
 51
180.0
  0
ARC
  5
2CC
330
1F
100
AcDbEntity
  8
0
 62
     3
100
AcDbCircle
 10
-414.9980231512325
 20
153.7282652052708
 30
0.0
 40
22.5
100
AcDbArc
 50
0.0
 51
180.0
  0
LINE
  5
2CD
330
1F
100
AcDbEntity
  8
0
 62
     3
100
AcDbLine
 10
-392.4980231512325
 20
153.7282652052708
 30
0.0
 11
-392.4980231512325
 21
128.7282652052707
 31
0.0
  0
LINE
  5
2CE
330
1F
100
AcDbEntity
  8
0
 62
     3
100
AcDbLine
 10
-437.4980231512325
 20
153.7282652052708
 30
0.0
 11
-437.4980231512325
 21
130.3181960808618
 31
0.0
  0
LINE
  5
2CF
330
1F
100
AcDbEntity
  8
0
 62
     3
100
AcDbLine
 10
-425.9980231512325
 20
153.7282652052708
 30
0.0
 11
-425.9980231512325
 21
129.1068380721943
 31
0.0
  0
LINE
  5
2D0
330
1F
100
AcDbEntity
  8
0
 62
     3
100
AcDbLine
 10
-403.9980231512325
 20
153.7282652052708
 30
0.0
 11
-403.9980231512325
 21
128.7282652052707
 31
0.0
  0
CIRCLE
  5
2D1
330
1F
100
AcDbEntity
  8
0
 62
     3
100
AcDbCircle
 10
-484.9980231512325
 20
404.1622290114227
 30
0.0
 40
9.0
  0
CIRCLE
  5
2D2
330
1F
100
AcDbEntity
  8
0
 62
     3
100
AcDbCircle
 10
-484.9980231512325
 20
404.1622290114227
 30
0.0
 40
16.0
  0
CIRCLE
  5
2D3
330
1F
100
AcDbEntity
  8
0
 62
     3
100
AcDbCircle
 10
-344.9980231512324
 20
404.1622290114226
 30
0.0
 40
9.0
  0
CIRCLE
  5
2D4
330
1F
100
AcDbEntity
  8
0
 62
     3
100
AcDbCircle
 10
-344.9980231512324
 20
404.1622290114226
 30
0.0
 40
16.0
  0
CIRCLE
  5
2D5
330
1F
100
AcDbEntity
  8
0
 62
     3
100
AcDbCircle
 10
-484.9980231512325
 20
173.2943013991188
 30
0.0
 40
9.0
  0
CIRCLE
  5
2D6
330
1F
100
AcDbEntity
  8
0
 62
     3
100
AcDbCircle
 10
-484.9980231512325
 20
173.2943013991188
 30
0.0
 40
16.0
  0
CIRCLE
  5
2D7
330
1F
100
AcDbEntity
  8
0
 62
     3
100
AcDbCircle
 10
-344.9980231512324
 20
173.294301399119
 30
0.0
 40
9.0
  0
CIRCLE
  5
2D8
330
1F
100
AcDbEntity
  8
0
 62
     3
100
AcDbCircle
 10
-344.9980231512324
 20
173.294301399119
 30
0.0
 40
16.0
  0
LINE
  5
2D9
330
1F
100
AcDbEntity
  8
0
 62
     3
100
AcDbLine
 10
-579.9980231512325
 20
416.7282652052704
 30
0.0
 11
-579.9980231512325
 21
160.7282652052701
 31
0.0
  0
LINE
  5
2DA
330
1F
100
AcDbEntity
  8
0
 62
     3
100
AcDbLine
 10
-579.9980231512325
 20
163.7282652052707
 30
0.0
 11
-606.9980231512323
 21
163.7282652052707
 31
0.0
  0
LINE
  5
2DB
330
1F
100
AcDbEntity
  8
0
 62
     3
100
AcDbLine
 10
-609.9980231512325
 20
170.4364691377698
 30
0.0
 11
-609.9980231512325
 21
407.020061272771
 31
0.0
  0
LINE
  5
2DC
330
1F
100
AcDbEntity
  8
0
 62
     3
100
AcDbLine
 10
-606.9980231512323
 20
413.7282652052708
 30
0.0
 11
-579.9980231512325
 21
413.7282652052708
 31
0.0
  0
LINE
  5
2DD
330
1F
100
AcDbEntity
  8
0
 62
     3
100
AcDbLine
 10
55.00197684876744
 20
383.7282652052707
 30
0.0
 11
55.00197684876744
 21
343.7282652052708
 31
0.0
  0
LINE
  5
2DE
330
1F
100
AcDbEntity
  8
0
 62
     3
100
AcDbLine
 10
55.00197684876744
 20
233.7282652052708
 30
0.0
 11
55.00197684876741
 21
193.7282652052707
 31
0.0
  0
LINE
  5
2DF
330
1F
100
AcDbEntity
  8
0
 62
     3
100
AcDbLine
 10
-729.9980231512325
 20
381.228265205271
 30
0.0
 11
-729.9980231512325
 21
352.7282652052707
 31
0.0
  0
LINE
  5
2E0
330
1F
100
AcDbEntity
  8
0
 62
     3
100
AcDbLine
 10
-729.9980231512325
 20
339.7282652052734
 30
0.0
 11
-729.9980231512325
 21
315.22826520527
 31
0.0
  0
LINE
  5
2E1
330
1F
100
AcDbEntity
  8
0
 62
     3
100
AcDbLine
 10
-729.9980231512325
 20
262.2282652052708
 30
0.0
 11
-729.9980231512325
 21
237.7282652052708
 31
0.0
  0
LINE
  5
2E2
330
1F
100
AcDbEntity
  8
0
 62
     3
100
AcDbLine
 10
-729.9980231512325
 20
224.7282652052715
 30
0.0
 11
-729.9980231512325
 21
196.2282652052708
 31
0.0
  0
ARC
  5
2E3
330
1F
100
AcDbEntity
  8
0
 62
     3
100
AcDbCircle
 10
-521.5050651719375
 20
481.2282652052701
 30
0.0
 40
65.0
100
AcDbArc
 50
284.2024943042698
 51
298.9550243718602
  0
ARC
  5
2E4
330
1F
100
AcDbEntity
  8
0
 62
     3
100
AcDbCircle
 10
-694.9980231512325
 20
381.228265205271
 30
0.0
 40
35.0
100
AcDbArc
 50
89.99999999999999
 51
180.0
  0
ARC
  5
2E5
330
1F
100
AcDbEntity
  8
0
 62
     3
100
AcDbCircle
 10
-521.5050651719369
 20
96.22826520527089
 30
0.0
 40
65.0
100
AcDbArc
 50
61.04497562814003
 51
76.53045178346771
  0
ARC
  5
2E6
330
1F
100
AcDbEntity
  8
0
 62
     3
100
AcDbCircle
 10
-694.9980231512325
 20
196.2282652052708
 30
0.0
 40
35.0
100
AcDbArc
 50
180.0
 51
269.9999999999999
  0
ARC
  5
2E7
330
1F
100
AcDbEntity
  8
0
 62
     3
100
AcDbCircle
 10
-414.9980231512325
 20
288.7282652052708
 30
0.0
 40
155.0
100
AcDbArc
 50
241.04497562814
 51
249.1299265475055
  0
ARC
  5
2E8
330
1F
100
AcDbEntity
  8
0
 62
     3
100
AcDbCircle
 10
-414.9980231512325
 20
288.7282652052708
 30
0.0
 40
155.0
100
AcDbArc
 50
110.8700734524945
 51
118.9550243718602
  0
ARC
  5
2E9
330
1F
100
AcDbEntity
  8
0
 62
     3
100
AcDbCircle
 10
-284.9980231512324
 20
423.7282652052708
 30
0.0
 40
11.0
100
AcDbArc
 50
89.99999999999999
 51
269.9999999999999
  0
LINE
  5
2EA
330
1F
100
AcDbEntity
  8
0
 62
     3
100
AcDbLine
 10
-284.9980231512324
 20
434.7282652052708
 30
0.0
 11
-184.9980231512324
 21
434.7282652052708
 31
0.0
  0
ARC
  5
2EB
330
1F
100
AcDbEntity
  8
0
 62
     3
100
AcDbCircle
 10
-284.9980231512324
 20
153.7282652052708
 30
0.0
 40
11.0
100
AcDbArc
 50
90.00000000000006
 51
270.0000000000001
  0
LINE
  5
2EC
330
1F
100
AcDbEntity
  8
0
 62
     3
100
AcDbLine
 10
-284.9980231512324
 20
142.7282652052708
 30
0.0
 11
-184.9980231512324
 21
142.7282652052708
 31
0.0
  0
ARC
  5
2ED
330
1F
100
AcDbEntity
  8
0
 62
     3
100
AcDbCircle
 10
-184.9980231512324
 20
288.7282652052708
 30
0.0
 40
160.0
100
AcDbArc
 50
269.9999999999999
 51
298.9550243718598
  0
ARC
  5
2EE
330
1F
100
AcDbEntity
  8
0
 62
     3
100
AcDbCircle
 10
-184.9980231512324
 20
288.7282652052708
 30
0.0
 40
155.0
100
AcDbArc
 50
283.7687180931382
 51
298.9550243718598
  0
ARC
  5
2EF
330
1F
100
AcDbEntity
  8
0
 62
     3
100
AcDbCircle
 10
-150.4875577498181
 20
147.8949318719374
 30
0.0
 40
10.0
100
AcDbArc
 50
170.4059317731395
 51
283.7687180931382
  0
ARC
  5
2F0
330
1F
100
AcDbEntity
  8
0
 62
     3
100
AcDbCircle
 10
-78.49098113052838
 20
96.22826520527083
 30
0.0
 40
65.0
100
AcDbArc
 50
89.99999999999999
 51
118.9550243718598
  0
LINE
  5
2F1
330
1F
100
AcDbEntity
  8
0
 62
     3
100
AcDbLine
 10
-78.49098113052838
 20
416.2282652052708
 30
0.0
 11
45.00197684876741
 21
416.2282652052708
 31
0.0
  0
ARC
  5
2F2
330
1F
100
AcDbEntity
  8
0
 62
     3
100
AcDbCircle
 10
-78.49098113052838
 20
481.2282652052708
 30
0.0
 40
65.0
100
AcDbArc
 50
241.04497562814
 51
269.9999999999999
  0
LINE
  5
2F3
330
1F
100
AcDbEntity
  8
0
 62
     3
100
AcDbLine
 10
-78.49098113052838
 20
161.2282652052709
 30
0.0
 11
45.00197684876741
 21
161.2282652052708
 31
0.0
  0
LINE
  5
2F4
330
1F
100
AcDbEntity
  8
0
 62
     3
100
AcDbLine
 10
80.00197684876741
 20
196.2282652052708
 30
0.0
 11
80.00197684876741
 21
233.7282652052708
 31
0.0
  0
LINE
  5
2F5
330
1F
100
AcDbEntity
  8
0
 62
     3
100
AcDbLine
 10
80.00197684876741
 20
343.7282652052708
 30
0.0
 11
80.00197684876741
 21
381.2282652052708
 31
0.0
  0
ARC
  5
2F6
330
1F
100
AcDbEntity
  8
0
 62
     3
100
AcDbCircle
 10
45.00197684876741
 20
196.2282652052708
 30
0.0
 40
35.0
100
AcDbArc
 50
269.9999999999999
 51
360.0
  0
ARC
  5
2F7
330
1F
100
AcDbEntity
  8
0
 62
     3
100
AcDbCircle
 10
45.00197684876741
 20
381.2282652052708
 30
0.0
 40
35.0
100
AcDbArc
 50
0.0
 51
89.99999999999999
  0
ARC
  5
2F8
330
1F
100
AcDbEntity
  8
0
 62
     3
100
AcDbCircle
 10
-184.9980231512324
 20
288.7282652052708
 30
0.0
 40
155.0
100
AcDbArc
 50
61.04497562814013
 51
76.23128190686178
  0
ARC
  5
2F9
330
1F
100
AcDbEntity
  8
0
 62
     3
100
AcDbCircle
 10
-150.487557749818
 20
429.5615985386041
 30
0.0
 40
10.0
100
AcDbArc
 50
76.23128190686178
 51
189.5940682268604
  0
LINE
  5
2FA
330
1F
100
AcDbEntity
  8
0
 62
     3
100
AcDbLine
 10
-470.2167731512325
 20
143.8977102507395
 30
0.0
 11
-471.9980231512325
 21
139.2257568651094
 31
0.0
  0
LINE
  5
2FB
330
1F
100
AcDbEntity
  8
0
 62
     3
100
AcDbLine
 10
-357.9980231512324
 20
128.7282652052707
 30
0.0
 11
-357.9980231512324
 21
133.7282652052707
 31
0.0
  0
LINE
  5
2FC
330
1F
100
AcDbEntity
  8
0
 62
     3
100
AcDbLine
 10
-357.9980231512324
 20
133.7282652052707
 30
0.0
 11
-318.5390428137292
 21
133.7282652052707
 31
0.0
  0
ARC
  5
2FD
330
1F
100
AcDbEntity
  8
0
 62
     3
100
AcDbCircle
 10
-318.5390428137292
 20
143.7282652052707
 30
0.0
 40
10.0
100
AcDbArc
 50
269.9999999999999
 51
16.60154959902042
  0
LINE
  5
2FE
330
1F
100
AcDbEntity
  8
0
 62
     3
100
AcDbLine
 10
-556.9980231512323
 20
243.728265205271
 30
0.0
 11
-529.9374108425723
 21
243.7282652052709
 31
0.0
  0
ARC
  5
2FF
330
1F
100
AcDbEntity
  8
0
 62
     3
100
AcDbCircle
 10
-556.9980231512323
 20
263.728265205271
 30
0.0
 40
20.0
100
AcDbArc
 50
267.1340160174003
 51
269.9999999999999
  0
LINE
  5
300
330
1F
100
AcDbEntity
  8
0
 62
     3
100
AcDbLine
 10
-556.9980231512325
 20
333.7282652052705
 30
0.0
 11
-529.9374108425723
 21
333.7282652052705
 31
0.0
  0
ARC
  5
301
330
1F
100
AcDbEntity
  8
0
 62
     3
100
AcDbCircle
 10
-556.9980231512325
 20
313.7282652052705
 30
0.0
 40
20.0
100
AcDbArc
 50
89.99999999999999
 51
92.86598398259902
  0
LINE
  5
302
330
1F
100
AcDbEntity
  8
0
 62
     3
100
AcDbLine
 10
-529.9980231512368
 20
380.7282652052701
 30
0.0
 11
-557.9980231512325
 21
380.7282652052701
 31
0.0
  0
LINE
  5
303
330
1F
100
AcDbEntity
  8
0
 62
     3
100
AcDbLine
 10
-529.998023151237
 20
196.7282652052705
 30
0.0
 11
-557.9980231512325
 21
196.7282652052709
 31
0.0
  0
ARC
  5
304
330
1F
100
AcDbEntity
  8
0
 62
     3
100
AcDbCircle
 10
-529.9374108425723
 20
246.7282652052709
 30
0.0
 40
3.0
100
AcDbArc
 50
269.9999999999999
 51
348.4630409671829
  0
ARC
  5
305
330
1F
100
AcDbEntity
  8
0
 62
     3
100
AcDbCircle
 10
-529.9374108425723
 20
330.7282652052709
 30
0.0
 40
3.0
100
AcDbArc
 50
11.53695903281132
 51
89.99999999999999
  0
LINE
  5
306
330
1F
100
AcDbEntity
  8
0
 62
     3
100
AcDbLine
 10
-447.4980231512325
 20
325.7282652052707
 30
0.0
 11
-447.4980231512323
 21
251.7282652052705
 31
0.0
  0
ARC
  5
307
330
1F
100
AcDbEntity
  8
0
 62
     3
100
AcDbCircle
 10
-455.4980231512323
 20
251.7282652052705
 30
0.0
 40
8.0
100
AcDbArc
 50
315.5729959991979
 51
360.0
  0
ARC
  5
308
330
1F
100
AcDbEntity
  8
0
 62
     3
100
AcDbCircle
 10
-455.4980231512325
 20
325.7282652052707
 30
0.0
 40
8.0
100
AcDbArc
 50
0.0
 51
44.42700400080662
  0
LINE
  5
309
330
1F
100
AcDbEntity
  8
0
 62
     3
100
AcDbLine
 10
-623.6402124685226
 20
403.7282652052707
 30
0.0
 11
-684.9980231512316
 21
403.7282652052707
 31
0.0
  0
LINE
  5
30A
330
1F
100
AcDbEntity
  8
0
 62
     3
100
AcDbLine
 10
-623.6402124685228
 20
173.7282652052707
 30
0.0
 11
-684.9980231512318
 21
173.7282652052707
 31
0.0
  0
LINE
  5
30B
330
1F
100
AcDbEntity
  8
0
 62
     3
100
AcDbLine
 10
-704.9980231512316
 20
383.7282652052707
 30
0.0
 11
-704.998023151232
 21
353.7282652052708
 31
0.0
  0
ARC
  5
30C
330
1F
100
AcDbEntity
  8
0
 62
     3
100
AcDbCircle
 10
-684.9980231512316
 20
383.7282652052707
 30
0.0
 40
20.0
100
AcDbArc
 50
89.99999999999999
 51
180.0
  0
LINE
  5
30D
330
1F
100
AcDbEntity
  8
0
 62
     3
100
AcDbLine
 10
-704.998023151232
 20
338.7282652052713
 30
0.0
 11
-704.998023151232
 21
333.7282652052704
 31
0.0
  0
LINE
  5
30E
330
1F
100
AcDbEntity
  8
0
 62
     3
100
AcDbLine
 10
-704.998023151232
 20
243.728265205271
 30
0.0
 11
-704.998023151232
 21
238.7282652052708
 31
0.0
  0
LINE
  5
30F
330
1F
100
AcDbEntity
  8
0
 62
     3
100
AcDbLine
 10
-704.998023151232
 20
223.7282652052708
 30
0.0
 11
-704.9980231512318
 21
193.7282652052707
 31
0.0
  0
ARC
  5
310
330
1F
100
AcDbEntity
  8
0
 62
     3
100
AcDbCircle
 10
-684.9980231512318
 20
193.7282652052707
 30
0.0
 40
20.0
100
AcDbArc
 50
180.0
 51
269.9999999999999
  0
LINE
  5
311
330
1F
100
AcDbEntity
  8
0
 62
     3
100
AcDbLine
 10
-644.9980231512325
 20
396.228265205271
 30
0.0
 11
-644.9980231512325
 21
181.2282652052709
 31
0.0
  0
LINE
  5
312
330
1F
100
AcDbEntity
  8
0
 62
     3
100
AcDbLine
 10
-694.8350827437389
 20
393.6418305660307
 30
0.0
 11
-694.8350827437389
 21
183.8146998445104
 31
0.0
  0
LINE
  5
313
330
1F
100
AcDbEntity
  8
0
 62
     3
100
AcDbLine
 10
-731.9980231512313
 20
348.7282652052716
 30
0.0
 11
-731.9980231512288
 21
343.7282652052707
 31
0.0
  0
LINE
  5
314
330
1F
100
AcDbEntity
  8
0
 62
     3
100
AcDbLine
 10
-726.9980231512313
 20
353.7282652052716
 30
0.0
 11
-702.5614867515285
 21
353.7282652052709
 31
0.0
  0
ARC
  5
315
330
1F
100
AcDbEntity
  8
0
 62
     3
100
AcDbCircle
 10
-726.9980231512313
 20
348.7282652052716
 30
0.0
 40
5.0
100
AcDbArc
 50
89.99999999999999
 51
180.0
  0
LINE
  5
316
330
1F
100
AcDbEntity
  8
0
 62
     3
100
AcDbLine
 10
-726.9980231512288
 20
338.7282652052707
 30
0.0
 11
-702.5614867515285
 21
338.7282652052707
 31
0.0
  0
ARC
  5
317
330
1F
100
AcDbEntity
  8
0
 62
     3
100
AcDbCircle
 10
-726.9980231512288
 20
343.7282652052707
 30
0.0
 40
5.0
100
AcDbArc
 50
180.0
 51
269.9999999999999
  0
LINE
  5
318
330
1F
100
AcDbEntity
  8
0
 62
     3
100
AcDbLine
 10
-726.9980231512323
 20
238.7282652052709
 30
0.0
 11
-702.5614867515285
 21
238.7282652052708
 31
0.0
  0
LINE
  5
319
330
1F
100
AcDbEntity
  8
0
 62
     3
100
AcDbLine
 10
-731.9980231512323
 20
233.7282652052709
 30
0.0
 11
-731.9980231512318
 21
228.7282652052709
 31
0.0
  0
ARC
  5
31A
330
1F
100
AcDbEntity
  8
0
 62
     3
100
AcDbCircle
 10
-726.9980231512323
 20
233.7282652052709
 30
0.0
 40
5.0
100
AcDbArc
 50
89.99999999999999
 51
180.0
  0
LINE
  5
31B
330
1F
100
AcDbEntity
  8
0
 62
     3
100
AcDbLine
 10
-726.9980231512318
 20
223.7282652052709
 30
0.0
 11
-702.5614867515285
 21
223.7282652052708
 31
0.0
  0
ARC
  5
31C
330
1F
100
AcDbEntity
  8
0
 62
     3
100
AcDbCircle
 10
-726.9980231512318
 20
228.7282652052709
 30
0.0
 40
5.0
100
AcDbArc
 50
180.0
 51
269.9999999999999
  0
ARC
  5
31D
330
1F
100
AcDbEntity
  8
0
 62
     3
100
AcDbCircle
 10
-702.5614867515285
 20
358.7282652052708
 30
0.0
 40
5.0
100
AcDbArc
 50
269.9999999999999
 51
360.0
  0
ARC
  5
31E
330
1F
100
AcDbEntity
  8
0
 62
     3
100
AcDbCircle
 10
-702.5614867515285
 20
333.7282652052708
 30
0.0
 40
5.0
100
AcDbArc
 50
0.0
 51
89.99999999999999
  0
ARC
  5
31F
330
1F
100
AcDbEntity
  8
0
 62
     3
100
AcDbCircle
 10
-702.5614867515285
 20
243.7282652052708
 30
0.0
 40
5.0
100
AcDbArc
 50
269.9999999999999
 51
360.0
  0
ARC
  5
320
330
1F
100
AcDbEntity
  8
0
 62
     3
100
AcDbCircle
 10
-702.5614867515285
 20
218.7282652052708
 30
0.0
 40
5.0
100
AcDbArc
 50
0.0
 51
89.99999999999999
  0
LINE
  5
321
330
1F
100
AcDbEntity
  8
0
 62
     3
100
AcDbLine
 10
-697.5614867515283
 20
353.728265205282
 30
0.0
 11
-697.5614867515283
 21
338.728265205282
 31
0.0
  0
LINE
  5
322
330
1F
100
AcDbEntity
  8
0
 62
     3
100
AcDbLine
 10
-697.5614867515283
 20
238.7282652052705
 30
0.0
 11
-697.5614867515283
 21
223.7282652052705
 31
0.0
  0
ARC
  5
323
330
1F
100
AcDbEntity
  8
0
 62
     3
100
AcDbCircle
 10
-600.9980231512325
 20
170.4364691377698
 30
0.0
 40
9.0
100
AcDbArc
 50
180.0
 51
228.1896851042233
  0
ARC
  5
324
330
1F
100
AcDbEntity
  8
0
 62
     3
100
AcDbCircle
 10
-600.9980231512325
 20
407.020061272771
 30
0.0
 40
9.0
100
AcDbArc
 50
131.8103148957758
 51
180.0
  0
ARC
  5
325
330
1F
100
AcDbEntity
  8
0
 62
     3
100
AcDbCircle
 10
-623.6402124685226
 20
421.7282652052708
 30
0.0
 40
18.0
100
AcDbArc
 50
269.9999999999999
 51
326.9925354100545
  0
ARC
  5
326
330
1F
100
AcDbEntity
  8
0
 62
     3
100
AcDbCircle
 10
-623.6402124685228
 20
155.7282652052708
 30
0.0
 40
18.0
100
AcDbArc
 50
33.00746458994427
 51
89.99999999999999
  0
LINE
  5
327
330
1F
100
AcDbEntity
  8
0
 62
     3
100
AcDbLine
 10
-734.9980231512325
 20
299.7282652052708
 30
0.0
 11
-704.9980231512325
 21
299.7282652052708
 31
0.0
  0
LINE
  5
328
330
1F
100
AcDbEntity
  8
0
 62
     3
100
AcDbLine
 10
-704.9980231512325
 20
277.7282652052708
 30
0.0
 11
-734.9980231512325
 21
277.7282652052708
 31
0.0
  0
LINE
  5
329
330
1F
100
AcDbEntity
  8
0
 62
     3
100
AcDbLine
 10
-698.5188682386397
 20
333.7282652052704
 30
0.0
 11
-704.9980231512318
 21
333.7282652052704
 31
0.0
  0
LINE
  5
32A
330
1F
100
AcDbEntity
  8
0
 62
     3
100
AcDbLine
 10
-698.5188682386397
 20
243.728265205271
 30
0.0
 11
-704.998023151232
 21
243.728265205271
 31
0.0
  0
LINE
  5
32B
330
1F
100
AcDbEntity
  8
0
 62
     3
100
AcDbLine
 10
-697.2115320974247
 20
318.7282652052704
 30
0.0
 11
-697.2115320974247
 21
258.728265205271
 31
0.0
  0
ARC
  5
32C
330
1F
100
AcDbEntity
  8
0
 62
     3
100
AcDbCircle
 10
-698.5188682386397
 20
333.531068242796
 30
0.0
 40
0.1971969624744378
100
AcDbArc
 50
8.57775972834612
 51
89.99999999999999
  0
ARC
  5
32D
330
1F
100
AcDbEntity
  8
0
 62
     3
100
AcDbCircle
 10
-796.6554681102073
 20
318.7282652052704
 30
0.0
 40
99.44393601278252
100
AcDbArc
 50
0.0
 51
8.577759728346196
  0
ARC
  5
32E
330
1F
100
AcDbEntity
  8
0
 62
     3
100
AcDbCircle
 10
-698.5188682386397
 20
243.9254621677455
 30
0.0
 40
0.1971969624744378
100
AcDbArc
 50
269.9999999999999
 51
351.4222402716538
  0
ARC
  5
32F
330
1F
100
AcDbEntity
  8
0
 62
     3
100
AcDbCircle
 10
-796.6554681102073
 20
258.728265205271
 30
0.0
 40
99.44393601278252
100
AcDbArc
 50
351.4222402716537
 51
360.0
  0
LINE
  5
330
330
1F
100
AcDbEntity
  8
0
 62
     3
100
AcDbLine
 10
-729.7061223947867
 20
263.7282652052708
 30
0.0
 11
-734.9980231512325
 21
263.7282652052708
 31
0.0
  0
LINE
  5
331
330
1F
100
AcDbEntity
  8
0
 62
     3
100
AcDbLine
 10
-734.9980231512327
 20
313.7282652052708
 30
0.0
 11
-729.7061223947683
 21
313.7282652052708
 31
0.0
  0
ARC
  5
332
330
1F
100
AcDbEntity
  8
0
 62
     3
100
AcDbCircle
 10
-704.9980231512325
 20
288.7282652052708
 30
0.0
 40
11.0
100
AcDbArc
 50
269.9999999999999
 51
315.0612937131753
  0
ARC
  5
333
330
1F
100
AcDbEntity
  8
0
 62
     3
100
AcDbCircle
 10
-704.9980231512325
 20
288.7282652052708
 30
0.0
 40
11.0
100
AcDbArc
 50
44.93870628682472
 51
89.99999999999999
  0
ARC
  5
334
330
1F
100
AcDbEntity
  8
0
 62
     3
100
AcDbCircle
 10
-704.9980231512325
 20
288.7282652052708
 30
0.0
 40
22.5
100
AcDbArc
 50
269.9999999999999
 51
290.2468983830985
  0
LINE
  5
335
330
1F
100
AcDbEntity
  8
0
 62
     3
100
AcDbLine
 10
-704.9980231512325
 20
311.2282652052708
 30
0.0
 11
-725.9980231512202
 21
311.2282652052708
 31
0.0
  0
LINE
  5
336
330
1F
100
AcDbEntity
  8
0
 62
     3
100
AcDbLine
 10
-704.9980231512325
 20
266.2282652052708
 30
0.0
 11
-725.9980231512388
 21
266.2282652052708
 31
0.0
  0
ARC
  5
337
330
1F
100
AcDbEntity
  8
0
 62
     3
100
AcDbCircle
 10
-704.9980231512325
 20
288.7282652052708
 30
0.0
 40
22.5
100
AcDbArc
 50
69.75310161690142
 51
89.99999999999999
  0
ARC
  5
338
330
1F
100
AcDbEntity
  8
0
 62
     3
100
AcDbCircle
 10
-725.9980231512202
 20
315.22826520527
 30
0.0
 40
4.0
100
AcDbArc
 50
180.0
 51
269.9999999999999
  0
ARC
  5
339
330
1F
100
AcDbEntity
  8
0
 62
     3
100
AcDbCircle
 10
-725.9980231512388
 20
262.2282652052708
 30
0.0
 40
4.0
100
AcDbArc
 50
89.99999999999999
 51
180.0
  0
LINE
  5
33A
330
1F
100
AcDbEntity
  8
0
 62
     3
100
AcDbLine
 10
-677.2480231512318
 20
211.2282652052708
 30
0.0
 11
-677.2480231512318
 21
196.2282652052708
 31
0.0
  0
LINE
  5
33B
330
1F
100
AcDbEntity
  8
0
 62
     3
100
AcDbLine
 10
-677.2480231512318
 20
381.2282652052708
 30
0.0
 11
-677.2480231512318
 21
366.2282652052708
 31
0.0
  0
ARC
  5
33C
330
1F
100
AcDbEntity
  8
0
 62
     3
100
AcDbCircle
 10
-677.2480231512325
 20
361.1408851367079
 30
0.0
 40
20.08738006856286
100
AcDbArc
 50
89.99999999999805
 51
123.5781810936407
  0
ARC
  5
33D
330
1F
100
AcDbEntity
  8
0
 62
     3
100
AcDbCircle
 10
-685.6041508613353
 20
373.7282652052708
 30
0.0
 40
4.978872289897152
100
AcDbArc
 50
123.5781810936407
 51
236.4218189063592
  0
ARC
  5
33E
330
1F
100
AcDbEntity
  8
0
 62
     3
100
AcDbCircle
 10
-677.2480231512325
 20
386.3156452738335
 30
0.0
 40
20.08738006856286
100
AcDbArc
 50
236.4218189063592
 51
270.0000000000019
  0
ARC
  5
33F
330
1F
100
AcDbEntity
  8
0
 62
     3
100
AcDbCircle
 10
-677.2480231512313
 20
191.1408851367079
 30
0.0
 40
20.08738006856286
100
AcDbArc
 50
90.00000000000128
 51
123.5781810936407
  0
ARC
  5
340
330
1F
100
AcDbEntity
  8
0
 62
     3
100
AcDbCircle
 10
-685.6041508613341
 20
203.7282652052708
 30
0.0
 40
4.978872289897152
100
AcDbArc
 50
123.5781810936407
 51
236.4218189063592
  0
ARC
  5
341
330
1F
100
AcDbEntity
  8
0
 62
     3
100
AcDbCircle
 10
-677.2480231512313
 20
216.3156452738336
 30
0.0
 40
20.08738006856286
100
AcDbArc
 50
236.4218189063592
 51
269.9999999999987
  0
ARC
  5
342
330
1F
100
AcDbEntity
  8
0
 62
     3
100
AcDbCircle
 10
-529.9980231512368
 20
383.7282652052701
 30
0.0
 40
3.0
100
AcDbArc
 50
270.0000000000009
 51
360.0
  0
ARC
  5
343
330
1F
100
AcDbEntity
  8
0
 62
     3
100
AcDbCircle
 10
-529.998023151237
 20
193.7282652052705
 30
0.0
 40
3.0
100
AcDbArc
 50
0.0
 51
89.99999999999953
  0
LINE
  5
344
330
1F
100
AcDbEntity
  8
0
 62
     3
100
AcDbLine
 10
-470.2167731512325
 20
433.5588201598021
 30
0.0
 11
-471.9980231512325
 21
438.2307735454322
 31
0.0
  0
ARC
  5
345
330
1F
100
AcDbEntity
  8
0
 62
     3
100
AcDbCircle
 10
-284.9980231512324
 20
153.7282652052708
 30
0.0
 40
25.0
100
AcDbArc
 50
89.99999999999999
 51
269.9999999999999
  0
ARC
  5
346
330
1F
100
AcDbEntity
  8
0
 62
     3
100
AcDbCircle
 10
-414.9980231512325
 20
288.7282652052708
 30
0.0
 40
163.0
100
AcDbArc
 50
251.1304727666696
 51
258.8695272333304
  0
LINE
  5
347
330
1F
100
AcDbEntity
  8
0
 62
     3
100
AcDbLine
 10
-467.7145372307389
 20
134.4882926193513
 30
0.0
 11
-467.6548145496325
 21
134.7111806996051
 31
0.0
  0
LINE
  5
348
330
1F
100
AcDbEntity
  8
0
 62
     3
100
AcDbLine
 10
-446.4044463712726
 20
129.0171617073495
 30
0.0
 11
-446.4641690523793
 21
128.7942736270959
 31
0.0
  0
ARC
  5
349
330
1F
100
AcDbEntity
  8
0
 62
     3
100
AcDbCircle
 10
-443.5066688924056
 20
128.240704572042
 30
0.0
 40
3.0
100
AcDbArc
 50
79.92718059078145
 51
164.9999999999998
  0
ARC
  5
34A
330
1F
100
AcDbEntity
  8
0
 62
     3
100
AcDbCircle
 10
-414.9980231512325
 20
288.7282652052708
 30
0.0
 40
160.0
100
AcDbArc
 50
259.9271805907815
 51
266.057805484678
  0
ARC
  5
34B
330
1F
100
AcDbEntity
  8
0
 62
     3
100
AcDbCircle
 10
-414.9980231512325
 20
288.7282652052708
 30
0.0
 40
160.0
100
AcDbArc
 50
93.94219451532194
 51
118.9550243718598
  0
LINE
  5
34C
330
1F
100
AcDbEntity
  8
0
 62
     3
100
AcDbLine
 10
-403.9980231512325
 20
448.7282652052708
 30
0.0
 11
-184.9980231512324
 21
448.7282652052708
 31
0.0
  0
LINE
  5
34D
330
1F
100
AcDbEntity
  8
0
 62
     3
100
AcDbLine
 10
-392.4980231512325
 20
423.7282652052708
 30
0.0
 11
-392.4980231512325
 21
448.7282652052708
 31
0.0
  0
LINE
  5
34E
330
1F
100
AcDbEntity
  8
0
 62
     3
100
AcDbLine
 10
-437.4980231512325
 20
423.7282652052708
 30
0.0
 11
-437.4980231512325
 21
447.1383343296797
 31
0.0
  0
LINE
  5
34F
330
1F
100
AcDbEntity
  8
0
 62
     3
100
AcDbLine
 10
-425.9980231512325
 20
423.7282652052708
 30
0.0
 11
-425.9980231512325
 21
448.3496923383472
 31
0.0
  0
LINE
  5
350
330
1F
100
AcDbEntity
  8
0
 62
     3
100
AcDbLine
 10
-403.9980231512325
 20
423.7282652052708
 30
0.0
 11
-403.9980231512325
 21
448.7282652052708
 31
0.0
  0
ARC
  5
351
330
1F
100
AcDbEntity
  8
0
 62
     3
100
AcDbCircle
 10
-184.9980231512324
 20
288.7282652052708
 30
0.0
 40
160.0
100
AcDbArc
 50
61.04497562814013
 51
90.0
  0
LINE
  5
352
330
1F
100
AcDbEntity
  8
0
 62
     3
100
AcDbLine
 10
-357.9980231512324
 20
448.7282652052708
 30
0.0
 11
-357.9980231512324
 21
443.7282652052708
 31
0.0
  0
LINE
  5
353
330
1F
100
AcDbEntity
  8
0
 62
     3
100
AcDbLine
 10
-357.9980231512324
 20
443.7282652052708
 30
0.0
 11
-318.5390428137292
 21
443.7282652052708
 31
0.0
  0
ARC
  5
354
330
1F
100
AcDbEntity
  8
0
 62
     3
100
AcDbCircle
 10
-318.5390428137292
 20
433.7282652052708
 30
0.0
 40
10.0
100
AcDbArc
 50
343.3984504009798
 51
90.0
  0
ARC
  5
355
330
1F
100
AcDbEntity
  8
0
 62
     3
100
AcDbCircle
 10
-284.9980231512324
 20
423.7282652052708
 30
0.0
 40
25.0
100
AcDbArc
 50
89.99999999999999
 51
269.9999999999999
  0
ARC
  5
356
330
1F
100
AcDbEntity
  8
0
 62
     3
100
AcDbCircle
 10
-184.9980231512324
 20
423.7282652052708
 30
0.0
 40
25.0
100
AcDbArc
 50
336.4218215217982
 51
90.0
  0
LINE
  5
357
330
1F
100
AcDbEntity
  8
0
 62
     3
100
AcDbLine
 10
-557.9980231512325
 20
416.7282652052704
 30
0.0
 11
-579.9980231512325
 21
416.7282652052704
 31
0.0
  0
LINE
  5
358
330
1F
100
AcDbEntity
  8
0
 62
     3
100
AcDbLine
 10
-579.9980231512325
 20
160.7282652052701
 30
0.0
 11
-557.9980231512325
 21
160.7282652052709
 31
0.0
  0
LINE
  5
359
330
1F
100
AcDbEntity
  8
0
 62
     3
100
AcDbLine
 10
-557.9980231512325
 20
416.7282652052704
 30
0.0
 11
-557.9980231512325
 21
160.7282652052709
 31
0.0
  0
LINE
  5
35A
330
1F
100
AcDbEntity
  8
0
 62
     3
100
AcDbLine
 10
-694.9980231512325
 20
161.2282652052708
 30
0.0
 11
-579.9980231512325
 21
161.2282652052709
 31
0.0
  0
LINE
  5
35B
330
1F
100
AcDbEntity
  8
0
 62
     3
100
AcDbLine
 10
-694.9980231512325
 20
416.228265205271
 30
0.0
 11
-579.9980231512325
 21
416.2282652052704
 31
0.0
  0
LINE
  5
35C
330
1F
100
AcDbEntity
  8
0
 62
     3
100
AcDbLine
 10
-257.9980231512326
 20
416.7282652052709
 30
0.0
 11
-257.9980231512326
 21
160.7282652052711
 31
0.0
  0
LINE
  5
35D
330
1F
100
AcDbEntity
  8
0
 62
     3
100
AcDbLine
 10
-235.9980231512326
 20
416.7282652052708
 30
0.0
 11
-235.9980231512326
 21
160.7282652052711
 31
0.0
  0
LINE
  5
35E
330
1F
100
AcDbEntity
  8
0
 62
     3
100
AcDbLine
 10
-257.9980231512326
 20
416.7282652052709
 30
0.0
 11
-235.9980231512326
 21
416.7282652052708
 31
0.0
  0
LINE
  5
35F
330
1F
100
AcDbEntity
  8
0
 62
     3
100
AcDbLine
 10
-257.9980231512326
 20
160.7282652052711
 30
0.0
 11
-235.9980231512326
 21
160.7282652052711
 31
0.0
  0
LINE
  5
360
330
1F
100
AcDbEntity
  8
0
 62
     3
100
AcDbLine
 10
-235.9980231512326
 20
163.7282652052708
 30
0.0
 11
14.00197684876736
 21
163.7282652052708
 31
0.0
  0
ARC
  5
361
330
1F
100
AcDbEntity
  8
0
 62
     3
100
AcDbCircle
 10
41.00197684876736
 20
201.2282652052709
 30
0.0
 40
5.0
100
AcDbArc
 50
269.9999999999999
 51
360.0
  0
LINE
  5
362
330
1F
100
AcDbEntity
  8
0
 62
     3
100
AcDbLine
 10
24.00197684876736
 20
381.2282652052708
 30
0.0
 11
24.00197684876736
 21
196.2282652052708
 31
0.0
  0
ARC
  5
363
330
1F
100
AcDbEntity
  8
0
 62
     3
100
AcDbCircle
 10
54.00197684876736
 20
351.7282652052708
 30
0.0
 40
8.0
100
AcDbArc
 50
180.0
 51
269.9999999999999
  0
ARC
  5
364
330
1F
100
AcDbEntity
  8
0
 62
     3
100
AcDbCircle
 10
41.00197684876736
 20
376.2282652052708
 30
0.0
 40
5.0
100
AcDbArc
 50
0.0
 51
89.99999999999984
  0
LINE
  5
365
330
1F
100
AcDbEntity
  8
0
 62
     3
100
AcDbLine
 10
54.00197684876736
 20
343.7282652052708
 30
0.0
 11
137.0019768487674
 21
343.7282652052708
 31
0.0
  0
LINE
  5
366
330
1F
100
AcDbEntity
  8
0
 62
     3
100
AcDbLine
 10
46.00197684876736
 20
376.2282652052708
 30
0.0
 11
46.00197684876736
 21
201.2282652052709
 31
0.0
  0
LINE
  5
367
330
1F
100
AcDbEntity
  8
0
 62
     3
100
AcDbLine
 10
148.0019768487674
 20
323.7282652052708
 30
0.0
 11
148.0019768487674
 21
253.7282652052708
 31
0.0
  0
LINE
  5
368
330
1F
100
AcDbEntity
  8
0
 62
     3
100
AcDbLine
 10
145.0019768487674
 20
323.7282652052709
 30
0.0
 11
148.0019768487674
 21
323.7282652052708
 31
0.0
  0
LINE
  5
369
330
1F
100
AcDbEntity
  8
0
 62
     3
100
AcDbLine
 10
145.0019768487674
 20
253.7282652052708
 30
0.0
 11
148.0019768487674
 21
253.7282652052708
 31
0.0
  0
LINE
  5
36A
330
1F
100
AcDbEntity
  8
0
 62
     3
100
AcDbLine
 10
145.0019768487674
 20
335.7282652052708
 30
0.0
 11
145.0019768487674
 21
241.7282652052708
 31
0.0
  0
ARC
  5
36B
330
1F
100
AcDbEntity
  8
0
 62
     3
100
AcDbCircle
 10
137.0019768487674
 20
335.7282652052708
 30
0.0
 40
8.0
100
AcDbArc
 50
0.0
 51
89.99999999999999
  0
ARC
  5
36C
330
1F
100
AcDbEntity
  8
0
 62
     3
100
AcDbCircle
 10
137.0019768487674
 20
241.7282652052708
 30
0.0
 40
8.0
100
AcDbArc
 50
269.9999999999999
 51
360.0
  0
LINE
  5
36D
330
1F
100
AcDbEntity
  8
0
 62
     3
100
AcDbLine
 10
245.0019768487676
 20
278.4782652052708
 30
0.0
 11
245.0019768487676
 21
298.9782652052707
 31
0.0
  0
LINE
  5
36E
330
1F
100
AcDbEntity
  8
0
 62
     3
100
AcDbLine
 10
220.0019768487677
 20
276.4782652052709
 30
0.0
 11
220.0019768487677
 21
300.9782652052707
 31
0.0
  0
LINE
  5
36F
330
1F
100
AcDbEntity
  8
0
 62
     3
100
AcDbLine
 10
216.5378663503749
 20
301.7282652052707
 30
0.0
 11
188.3019768487677
 21
301.7282652052707
 31
0.0
  0
LINE
  5
370
330
1F
100
AcDbEntity
  8
0
 62
     3
100
AcDbLine
 10
187.7019768487679
 20
301.7282652052707
 30
0.0
 11
175.3019768487677
 21
301.7282652052707
 31
0.0
  0
LINE
  5
371
330
1F
100
AcDbEntity
  8
0
 62
     3
100
AcDbLine
 10
174.7019768487679
 20
301.7282652052707
 30
0.0
 11
162.3019768487677
 21
301.7282652052707
 31
0.0
  0
LINE
  5
372
330
1F
100
AcDbEntity
  8
0
 62
     3
100
AcDbLine
 10
161.7019768487679
 20
301.7282652052707
 30
0.0
 11
148.0019768487674
 21
301.7282652052707
 31
0.0
  0
LINE
  5
373
330
1F
100
AcDbEntity
  8
0
 62
     3
100
AcDbLine
 10
148.0019768487674
 20
275.7282652052708
 30
0.0
 11
161.7019768487679
 21
275.7282652052708
 31
0.0
  0
LINE
  5
374
330
1F
100
AcDbEntity
  8
0
 62
     3
100
AcDbLine
 10
162.3019768487677
 20
275.7282652052708
 30
0.0
 11
174.7019768487679
 21
275.7282652052708
 31
0.0
  0
LINE
  5
375
330
1F
100
AcDbEntity
  8
0
 62
     3
100
AcDbLine
 10
175.3019768487677
 20
275.7282652052708
 30
0.0
 11
187.7019768487679
 21
275.7282652052708
 31
0.0
  0
LINE
  5
376
330
1F
100
AcDbEntity
  8
0
 62
     3
100
AcDbLine
 10
188.3019768487677
 20
275.7282652052708
 30
0.0
 11
216.5378663503749
 21
275.7282652052708
 31
0.0
  0
ARC
  5
377
330
1F
100
AcDbEntity
  8
0
 62
     3
100
AcDbCircle
 10
162.0019768487677
 20
301.7282652052707
 30
0.0
 40
0.2999999999999065
100
AcDbArc
 50
180.0
 51
360.0
  0
ARC
  5
378
330
1F
100
AcDbEntity
  8
0
 62
     3
100
AcDbCircle
 10
188.0019768487677
 20
301.7282652052707
 30
0.0
 40
0.2999999999999065
100
AcDbArc
 50
180.0
 51
360.0
  0
ARC
  5
379
330
1F
100
AcDbEntity
  8
0
 62
     3
100
AcDbCircle
 10
175.0019768487678
 20
301.7282652052707
 30
0.0
 40
0.2999999999999065
100
AcDbArc
 50
180.0
 51
360.0
  0
ARC
  5
37A
330
1F
100
AcDbEntity
  8
0
 62
     3
100
AcDbCircle
 10
162.0019768487677
 20
275.7282652052709
 30
0.0
 40
0.2999999999999065
100
AcDbArc
 50
0.0
 51
180.0
  0
ARC
  5
37B
330
1F
100
AcDbEntity
  8
0
 62
     3
100
AcDbCircle
 10
188.0019768487677
 20
275.7282652052709
 30
0.0
 40
0.2999999999999065
100
AcDbArc
 50
0.0
 51
180.0
  0
ARC
  5
37C
330
1F
100
AcDbEntity
  8
0
 62
     3
100
AcDbCircle
 10
175.0019768487678
 20
275.7282652052709
 30
0.0
 40
0.2999999999999065
100
AcDbArc
 50
0.0
 51
180.0
  0
LINE
  5
37D
330
1F
100
AcDbEntity
  8
0
 62
     3
100
AcDbLine
 10
188.3019768487677
 20
275.7282652052708
 30
0.0
 11
188.3019768487677
 21
301.7282652052707
 31
0.0
  0
LINE
  5
37E
330
1F
100
AcDbEntity
  8
0
 62
     3
100
AcDbLine
 10
187.7019768487679
 20
301.7282652052707
 30
0.0
 11
187.7019768487679
 21
275.7282652052708
 31
0.0
  0
LINE
  5
37F
330
1F
100
AcDbEntity
  8
0
 62
     3
100
AcDbLine
 10
175.3019768487677
 20
275.7282652052708
 30
0.0
 11
175.3019768487677
 21
301.7282652052707
 31
0.0
  0
LINE
  5
380
330
1F
100
AcDbEntity
  8
0
 62
     3
100
AcDbLine
 10
174.7019768487679
 20
301.7282652052707
 30
0.0
 11
174.7019768487679
 21
275.7282652052708
 31
0.0
  0
LINE
  5
381
330
1F
100
AcDbEntity
  8
0
 62
     3
100
AcDbLine
 10
162.3019768487677
 20
275.7282652052708
 30
0.0
 11
162.3019768487677
 21
301.7282652052707
 31
0.0
  0
LINE
  5
382
330
1F
100
AcDbEntity
  8
0
 62
     3
100
AcDbLine
 10
161.7019768487679
 20
301.7282652052707
 30
0.0
 11
161.7019768487679
 21
275.7282652052708
 31
0.0
  0
LINE
  5
383
330
1F
100
AcDbEntity
  8
0
 62
     3
100
AcDbLine
 10
216.5378663503749
 20
301.7282652052707
 30
0.0
 11
216.5378663503749
 21
275.7282652052708
 31
0.0
  0
LINE
  5
384
330
1F
100
AcDbEntity
  8
0
 62
     3
100
AcDbLine
 10
216.5378663503749
 20
275.7282652052708
 30
0.0
 11
220.0019768487677
 21
276.4782652052709
 31
0.0
  0
LINE
  5
385
330
1F
100
AcDbEntity
  8
0
 62
     3
100
AcDbLine
 10
216.5378663503749
 20
301.7282652052707
 30
0.0
 11
220.0019768487677
 21
300.9782652052707
 31
0.0
  0
LINE
  5
386
330
1F
100
AcDbEntity
  8
0
 62
     3
100
AcDbLine
 10
252.0019768487676
 20
278.2282652052708
 30
0.0
 11
252.0019768487676
 21
299.2282652052708
 31
0.0
  0
LINE
  5
387
330
1F
100
AcDbEntity
  8
0
 62
     3
100
AcDbLine
 10
267.0019768487676
 20
278.2282652052708
 30
0.0
 11
267.0019768487676
 21
299.2282652052707
 31
0.0
  0
LINE
  5
388
330
1F
100
AcDbEntity
  8
0
 62
     3
100
AcDbLine
 10
245.0019768487676
 20
299.2282652052708
 30
0.0
 11
267.0019768487676
 21
299.2282652052707
 31
0.0
  0
LINE
  5
389
330
1F
100
AcDbEntity
  8
0
 62
     3
100
AcDbLine
 10
245.0019768487676
 20
278.2282652052708
 30
0.0
 11
267.0019768487676
 21
278.2282652052708
 31
0.0
  0
LINE
  5
38A
330
1F
100
AcDbEntity
  8
0
 62
     3
100
AcDbLine
 10
54.00197684876736
 20
233.7282652052708
 30
0.0
 11
137.0019768487674
 21
233.7282652052708
 31
0.0
  0
ARC
  5
38B
330
1F
100
AcDbEntity
  8
0
 62
     3
100
AcDbCircle
 10
54.00197684876736
 20
225.7282652052708
 30
0.0
 40
8.0
100
AcDbArc
 50
89.99999999999999
 51
180.0
  0
LINE
  5
38C
330
1F
100
AcDbEntity
  8
0
 62
     3
100
AcDbLine
 10
-235.9980231512326
 20
413.7282652052708
 30
0.0
 11
14.00197684876736
 21
413.7282652052708
 31
0.0
  0
LINE
  5
38D
330
1F
100
AcDbEntity
  8
0
 62
     3
100
AcDbLine
 10
-526.9980231512325
 20
331.3282652052708
 30
0.0
 11
-257.9980231512326
 21
331.3282652052708
 31
0.0
  0
LINE
  5
38E
330
1F
100
AcDbEntity
  8
0
 62
     3
100
AcDbLine
 10
-257.9980231512326
 20
326.3282652052706
 30
0.0
 11
-447.5205548811608
 21
326.3282652052706
 31
0.0
  0
LINE
  5
38F
330
1F
100
AcDbEntity
  8
0
 62
     3
100
AcDbLine
 10
-257.9980231512326
 20
251.1282652052708
 30
0.0
 11
-447.5205548811608
 21
251.1282652052708
 31
0.0
  0
LINE
  5
390
330
1F
100
AcDbEntity
  8
0
 62
     3
100
AcDbLine
 10
-526.9980231512325
 20
246.1282652052708
 30
0.0
 11
-257.9980231512326
 21
246.1282652052708
 31
0.0
  0
LINE
  5
391
330
1F
100
AcDbEntity
  8
0
 62
     3
100
AcDbLine
 10
-526.9980231512325
 20
193.7282652052707
 30
0.0
 11
-257.9980231512326
 21
193.7282652052707
 31
0.0
  0
LINE
  5
392
330
1F
100
AcDbEntity
  8
0
 62
     3
100
AcDbLine
 10
14.00197684876736
 20
193.7282652052707
 30
0.0
 11
55.00197684876741
 21
193.7282652052707
 31
0.0
  0
LINE
  5
393
330
1F
100
AcDbEntity
  8
0
 62
     3
100
AcDbLine
 10
-257.9980231512326
 20
178.7282652052708
 30
0.0
 11
-284.9980231512324
 21
178.7282652052708
 31
0.0
  0
ARC
  5
394
330
1F
100
AcDbEntity
  8
0
 62
     3
100
AcDbCircle
 10
-184.9980231512324
 20
153.7282652052708
 30
0.0
 40
25.0
100
AcDbArc
 50
269.9999999999999
 51
23.57817847820184
  0
LINE
  5
395
330
1F
100
AcDbEntity
  8
0
 62
     3
100
AcDbLine
 10
-257.9980231512326
 20
164.7282652052708
 30
0.0
 11
-284.9980231512324
 21
164.7282652052708
 31
0.0
  0
ARC
  5
396
330
1F
100
AcDbEntity
  8
0
 62
     3
100
AcDbCircle
 10
-184.9980231512324
 20
153.7282652052708
 30
0.0
 40
11.0
100
AcDbArc
 50
270.0000000000001
 51
65.38002267134294
  0
LINE
  5
397
330
1F
100
AcDbEntity
  8
0
 62
     3
100
AcDbLine
 10
-526.9980231512325
 20
383.7282652052707
 30
0.0
 11
-257.9980231512326
 21
383.7282652052707
 31
0.0
  0
LINE
  5
398
330
1F
100
AcDbEntity
  8
0
 62
     3
100
AcDbLine
 10
14.00197684876736
 20
383.7282652052707
 30
0.0
 11
55.00197684876744
 21
383.7282652052707
 31
0.0
  0
LINE
  5
399
330
1F
100
AcDbEntity
  8
0
 62
     3
100
AcDbLine
 10
-257.9980231512326
 20
412.7282652052708
 30
0.0
 11
-284.9980231512324
 21
412.7282652052708
 31
0.0
  0
ARC
  5
39A
330
1F
100
AcDbEntity
  8
0
 62
     3
100
AcDbCircle
 10
-184.9980231512324
 20
423.7282652052708
 30
0.0
 40
11.0
100
AcDbArc
 50
294.6199773286571
 51
90.0
  0
LINE
  5
39B
330
1F
100
AcDbEntity
  8
0
 62
     3
100
AcDbLine
 10
-284.9980231512324
 20
398.7282652052708
 30
0.0
 11
-257.9980231512326
 21
398.7282652052708
 31
0.0
  0
ARC
  5
39C
330
1F
100
AcDbEntity
  8
0
 62
     3
100
AcDbCircle
 10
-696.0419341048487
 20
-230.2705714372569
 30
0.0
 40
5.0
100
AcDbArc
 50
175.0000000000002
 51
270.0
  0
ARC
  5
39D
330
1F
100
AcDbEntity
  8
0
 62
     3
100
AcDbCircle
 10
-567.9980231512325
 20
-201.2705714372569
 30
0.0
 40
3.0
100
AcDbArc
 50
270.0
 51
360.0
  0
ARC
  5
39E
330
1F
100
AcDbEntity
  8
0
 62
     3
100
AcDbCircle
 10
-569.9980231512325
 20
-230.2705714372569
 30
0.0
 40
5.0
100
AcDbArc
 50
270.0
 51
360.0
  0
ARC
  5
39F
330
1F
100
AcDbEntity
  8
0
 62
     3
100
AcDbCircle
 10
-559.9980231512325
 20
-206.2705714372567
 30
0.0
 40
5.0
100
AcDbArc
 50
90.0
 51
180.0
  0
LINE
  5
3A0
330
1F
100
AcDbEntity
  8
0
 62
     3
100
AcDbLine
 10
53.00197684876741
 20
-182.2705714372568
 30
0.0
 11
24.00197684876736
 21
-182.2705714372568
 31
0.0
  0
LINE
  5
3A1
330
1F
100
AcDbEntity
  8
0
 62
     3
100
AcDbLine
 10
55.00197684876741
 20
-184.2705714372568
 30
0.0
 11
53.00197684876741
 21
-182.2705714372568
 31
0.0
  0
LINE
  5
3A2
330
1F
100
AcDbEntity
  8
0
 62
     3
100
AcDbLine
 10
24.00197684876736
 20
-220.2705714372569
 30
0.0
 11
-240.9980231512326
 21
-220.2705714372569
 31
0.0
  0
LINE
  5
3A3
330
1F
100
AcDbEntity
  8
0
 62
     3
100
AcDbLine
 10
-284.9980231512324
 20
-267.2705714372569
 30
0.0
 11
-284.9980231512324
 21
-270.2705714372568
 31
0.0
  0
LINE
  5
3A4
330
1F
100
AcDbEntity
  8
0
 62
     3
100
AcDbLine
 10
-284.9980231512324
 20
-270.2705714372568
 30
0.0
 11
-184.9980231512324
 21
-270.2705714372568
 31
0.0
  0
LINE
  5
3A5
330
1F
100
AcDbEntity
  8
0
 62
     3
100
AcDbLine
 10
-184.9980231512324
 20
-270.2705714372568
 30
0.0
 11
-184.9980231512324
 21
-267.2705714372569
 31
0.0
  0
LINE
  5
3A6
330
1F
100
AcDbEntity
  8
0
 62
     3
100
AcDbLine
 10
-353.9980231512321
 20
-267.2705714372569
 30
0.0
 11
-284.9980231512324
 21
-267.2705714372569
 31
0.0
  0
LINE
  5
3A7
330
1F
100
AcDbEntity
  8
0
 62
     3
100
AcDbLine
 10
-184.9980231512324
 20
-267.2705714372569
 30
0.0
 11
82.00197684876753
 21
-267.2705714372569
 31
0.0
  0
LINE
  5
3A8
330
1F
100
AcDbEntity
  8
0
 62
     3
100
AcDbLine
 10
591.930091413007
 20
-259.2705714372569
 30
0.0
 11
602.930091413007
 21
-270.2705714372569
 31
0.0
  0
LINE
  5
3A9
330
1F
100
AcDbEntity
  8
0
 62
     3
100
AcDbLine
 10
666.1300914130068
 20
-270.2705714372569
 30
0.0
 11
677.1300914130068
 21
-259.2705714372569
 31
0.0
  0
LINE
  5
3AA
330
1F
100
AcDbEntity
  8
0
 62
     3
100
AcDbLine
 10
617.5300914130069
 20
-250.2705714372569
 30
0.0
 11
651.5300914130069
 21
-250.2705714372569
 31
0.0
  0
LINE
  5
3AB
330
1F
100
AcDbEntity
  8
0
 62
     3
100
AcDbLine
 10
617.5300914130069
 20
-210.2705714372569
 30
0.0
 11
651.5300914130069
 21
-210.2705714372569
 31
0.0
  0
LINE
  5
3AC
330
1F
100
AcDbEntity
  8
0
 62
     3
100
AcDbLine
 10
609.5300914130069
 20
-218.2705714372569
 30
0.0
 11
609.5300914130069
 21
-242.2705714372569
 31
0.0
  0
LINE
  5
3AD
330
1F
100
AcDbEntity
  8
0
 62
     3
100
AcDbLine
 10
659.5300914130069
 20
-218.2705714372569
 30
0.0
 11
659.5300914130069
 21
-242.2705714372569
 31
0.0
  0
ARC
  5
3AE
330
1F
100
AcDbEntity
  8
0
 62
     3
100
AcDbCircle
 10
617.5300914130069
 20
-218.2705714372569
 30
0.0
 40
8.0
100
AcDbArc
 50
90.0
 51
180.0
  0
ARC
  5
3AF
330
1F
100
AcDbEntity
  8
0
 62
     3
100
AcDbCircle
 10
651.5300914130069
 20
-218.2705714372569
 30
0.0
 40
8.0
100
AcDbArc
 50
0.0
 51
90.0
  0
ARC
  5
3B0
330
1F
100
AcDbEntity
  8
0
 62
     3
100
AcDbCircle
 10
651.5300914130069
 20
-242.2705714372569
 30
0.0
 40
8.0
100
AcDbArc
 50
270.0
 51
360.0
  0
ARC
  5
3B1
330
1F
100
AcDbEntity
  8
0
 62
     3
100
AcDbCircle
 10
617.5300914130069
 20
-242.2705714372569
 30
0.0
 40
8.0
100
AcDbArc
 50
180.0
 51
270.0
  0
LINE
  5
3B2
330
1F
100
AcDbEntity
  8
0
 62
     3
100
AcDbLine
 10
619.0300914130069
 20
-215.7705714372569
 30
0.0
 11
650.0300914130069
 21
-215.7705714372569
 31
0.0
  0
LINE
  5
3B3
330
1F
100
AcDbEntity
  8
0
 62
     3
100
AcDbLine
 10
654.0300914130069
 20
-219.7705714372569
 30
0.0
 11
654.0300914130069
 21
-240.7705714372569
 31
0.0
  0
LINE
  5
3B4
330
1F
100
AcDbEntity
  8
0
 62
     3
100
AcDbLine
 10
650.0300914130069
 20
-244.7705714372569
 30
0.0
 11
619.0300914130069
 21
-244.7705714372569
 31
0.0
  0
LINE
  5
3B5
330
1F
100
AcDbEntity
  8
0
 62
     3
100
AcDbLine
 10
615.0300914130069
 20
-240.7705714372569
 30
0.0
 11
615.0300914130069
 21
-219.7705714372569
 31
0.0
  0
ARC
  5
3B6
330
1F
100
AcDbEntity
  8
0
 62
     3
100
AcDbCircle
 10
619.0300914130069
 20
-219.7705714372569
 30
0.0
 40
4.0
100
AcDbArc
 50
90.0
 51
180.0
  0
ARC
  5
3B7
330
1F
100
AcDbEntity
  8
0
 62
     3
100
AcDbCircle
 10
650.0300914130069
 20
-219.7705714372569
 30
0.0
 40
4.0
100
AcDbArc
 50
0.0
 51
90.0
  0
ARC
  5
3B8
330
1F
100
AcDbEntity
  8
0
 62
     3
100
AcDbCircle
 10
650.0300914130069
 20
-240.7705714372569
 30
0.0
 40
4.0
100
AcDbArc
 50
270.0
 51
360.0
  0
ARC
  5
3B9
330
1F
100
AcDbEntity
  8
0
 62
     3
100
AcDbCircle
 10
619.0300914130069
 20
-240.7705714372569
 30
0.0
 40
4.0
100
AcDbArc
 50
180.0
 51
270.0
  0
LINE
  5
3BA
330
1F
100
AcDbEntity
  8
0
 62
     3
100
AcDbLine
 10
14.00197684876747
 20
163.7282652052708
 30
0.0
 11
14.00197684876747
 21
193.7282652052708
 31
0.0
  0
LINE
  5
3BB
330
1F
100
AcDbEntity
  8
0
 62
     3
100
AcDbLine
 10
41.00197684876736
 20
196.2282652052709
 30
0.0
 11
-165.9980231512326
 21
196.2282652052708
 31
0.0
  0
LINE
  5
3BC
330
1F
100
AcDbEntity
  8
0
 62
     3
100
AcDbLine
 10
-185.9980231512326
 20
168.7282652052708
 30
0.0
 11
-185.9980231512326
 21
188.7282652052708
 31
0.0
  0
LINE
  5
3BD
330
1F
100
AcDbEntity
  8
0
 62
     3
100
AcDbLine
 10
-175.9980231512326
 20
168.7282652052708
 30
0.0
 11
-175.9980231512326
 21
186.2282652052708
 31
0.0
  0
LINE
  5
3BE
330
1F
100
AcDbEntity
  8
0
 62
     3
100
AcDbLine
 10
4.00197684876747
 20
168.7282652052708
 30
0.0
 11
-172.3377691133882
 21
168.7282652052708
 31
0.0
  0
LINE
  5
3BF
330
1F
100
AcDbEntity
  8
0
 62
     3
100
AcDbLine
 10
-160.9980231512326
 20
213.7282652052708
 30
0.0
 11
-45.99802315123253
 21
213.7282652052708
 31
0.0
  0
LINE
  5
3C0
330
1F
100
AcDbEntity
  8
0
 62
     3
100
AcDbLine
 10
-15.99802315123253
 20
243.7282652052708
 30
0.0
 11
-15.99802315123253
 21
288.7282652052708
 31
0.0
  0
LINE
  5
3C1
330
1F
100
AcDbEntity
  8
0
 62
     3
100
AcDbLine
 10
14.00197684876747
 20
413.7282652052708
 30
0.0
 11
14.00197684876747
 21
383.7282652052709
 31
0.0
  0
LINE
  5
3C2
330
1F
100
AcDbEntity
  8
0
 62
     3
100
AcDbLine
 10
41.00197684876738
 20
381.2282652052708
 30
0.0
 11
-165.9980231512326
 21
381.2282652052709
 31
0.0
  0
LINE
  5
3C3
330
1F
100
AcDbEntity
  8
0
 62
     3
100
AcDbLine
 10
4.00197684876747
 20
408.7282652052708
 30
0.0
 11
-172.3377691133882
 21
408.7282652052708
 31
0.0
  0
LINE
  5
3C4
330
1F
100
AcDbEntity
  8
0
 62
     3
100
AcDbLine
 10
-160.9980231512326
 20
363.7282652052708
 30
0.0
 11
-70.49802315123259
 21
363.7282652052708
 31
0.0
  0
LINE
  5
3C5
330
1F
100
AcDbEntity
  8
0
 62
     3
100
AcDbLine
 10
-15.99802315123253
 20
333.7282652052708
 30
0.0
 11
-15.99802315123253
 21
288.7282652052708
 31
0.0
  0
ARC
  5
3C6
330
1F
100
AcDbEntity
  8
0
 62
     3
100
AcDbCircle
 10
-165.9980231512326
 20
186.2282652052708
 30
0.0
 40
10.0
100
AcDbArc
 50
90.0
 51
180.0
  0
ARC
  5
3C7
330
1F
100
AcDbEntity
  8
0
 62
     3
100
AcDbCircle
 10
-160.9980231512326
 20
188.7282652052708
 30
0.0
 40
25.0
100
AcDbArc
 50
90.0
 51
180.0
  0
ARC
  5
3C8
330
1F
100
AcDbEntity
  8
0
 62
     3
100
AcDbCircle
 10
-190.9980231512326
 20
168.7282652052708
 30
0.0
 40
5.0
100
AcDbArc
 50
270.0
 51
360.0
  0
ARC
  5
3C9
330
1F
100
AcDbEntity
  8
0
 62
     3
100
AcDbCircle
 10
-180.9980231512326
 20
168.7282652052708
 30
0.0
 40
5.0
100
AcDbArc
 50
270.0
 51
360.0
  0
ARC
  5
3CA
330
1F
100
AcDbEntity
  8
0
 62
     3
100
AcDbCircle
 10
-172.3377691133882
 20
163.7282652052708
 30
0.0
 40
5.0
100
AcDbArc
 50
90.0
 51
149.9999999999999
  0
LINE
  5
3CB
330
1F
100
AcDbEntity
  8
0
 62
     3
100
AcDbLine
 10
-185.9980231512326
 20
408.7282652052708
 30
0.0
 11
-185.9980231512326
 21
388.7282652052708
 31
0.0
  0
LINE
  5
3CC
330
1F
100
AcDbEntity
  8
0
 62
     3
100
AcDbLine
 10
-175.9980231512326
 20
408.7282652052708
 30
0.0
 11
-175.9980231512326
 21
391.2282652052708
 31
0.0
  0
ARC
  5
3CD
330
1F
100
AcDbEntity
  8
0
 62
     3
100
AcDbCircle
 10
-165.9980231512326
 20
391.2282652052708
 30
0.0
 40
10.0
100
AcDbArc
 50
180.0
 51
270.0
  0
ARC
  5
3CE
330
1F
100
AcDbEntity
  8
0
 62
     3
100
AcDbCircle
 10
-160.9980231512326
 20
388.7282652052708
 30
0.0
 40
25.0
100
AcDbArc
 50
180.0
 51
270.0
  0
ARC
  5
3CF
330
1F
100
AcDbEntity
  8
0
 62
     3
100
AcDbCircle
 10
-190.9980231512326
 20
408.7282652052708
 30
0.0
 40
5.0
100
AcDbArc
 50
0.0
 51
90.0
  0
ARC
  5
3D0
330
1F
100
AcDbEntity
  8
0
 62
     3
100
AcDbCircle
 10
-180.9980231512326
 20
408.7282652052708
 30
0.0
 40
5.0
100
AcDbArc
 50
0.0
 51
90.0
  0
ARC
  5
3D1
330
1F
100
AcDbEntity
  8
0
 62
     3
100
AcDbCircle
 10
-172.3377691133882
 20
413.7282652052708
 30
0.0
 40
5.0
100
AcDbArc
 50
210.0
 51
270.0
  0
ARC
  5
3D2
330
1F
100
AcDbEntity
  8
0
 62
     3
100
AcDbCircle
 10
4.00197684876747
 20
178.7282652052708
 30
0.0
 40
10.0
100
AcDbArc
 50
270.0
 51
360.0
  0
ARC
  5
3D3
330
1F
100
AcDbEntity
  8
0
 62
     3
100
AcDbCircle
 10
4.00197684876747
 20
398.7282652052708
 30
0.0
 40
10.0
100
AcDbArc
 50
0.0
 51
90.0
  0
ARC
  5
3D4
330
1F
100
AcDbEntity
  8
0
 62
     3
100
AcDbCircle
 10
16.50197684876747
 20
193.7282652052708
 30
0.0
 40
2.5
100
AcDbArc
 50
90.0
 51
180.0
  0
ARC
  5
3D5
330
1F
100
AcDbEntity
  8
0
 62
     3
100
AcDbCircle
 10
16.50197684876747
 20
383.7282652052709
 30
0.0
 40
2.5
100
AcDbArc
 50
180.0
 51
270.0
  0
ARC
  5
3D6
330
1F
100
AcDbEntity
  8
0
 62
     3
100
AcDbCircle
 10
-45.99802315123253
 20
243.7282652052708
 30
0.0
 40
30.0
100
AcDbArc
 50
270.0
 51
360.0
  0
ARC
  5
3D7
330
1F
100
AcDbEntity
  8
0
 62
     3
100
AcDbCircle
 10
-45.99802315123253
 20
333.7282652052708
 30
0.0
 40
30.0
100
AcDbArc
 50
0.0
 51
90.0
  0
LINE
  5
3D8
330
1F
100
AcDbEntity
  8
0
 62
     3
100
AcDbLine
 10
-45.99802315123253
 20
363.7282652052708
 30
0.0
 11
-70.49802315123259
 21
363.7282652052708
 31
0.0
  0
LINE
  5
3D9
330
1F
100
AcDbEntity
  8
0
 62
     3
100
AcDbLine
 10
557.0300914130069
 20
-107.2705714372568
 30
0.0
 11
712.0300914130071
 21
-107.2705714372568
 31
0.0
  0
ARC
  5
3DA
330
1F
100
AcDbEntity
  8
0
 62
     3
100
AcDbCircle
 10
557.0300914130069
 20
-122.2705714372568
 30
0.0
 40
15.0
100
AcDbArc
 50
90.0
 51
180.0
  0
ARC
  5
3DB
330
1F
100
AcDbEntity
  8
0
 62
     3
100
AcDbCircle
 10
712.0300914130071
 20
-122.2705714372568
 30
0.0
 40
15.0
100
AcDbArc
 50
0.0
 51
90.0
  0
ARC
  5
3DC
330
1F
100
AcDbEntity
  8
0
 62
     3
100
AcDbCircle
 10
628.5300914130069
 20
-156.2705714372567
 30
0.0
 40
49.0
100
AcDbArc
 50
90.0
 51
180.0
  0
ARC
  5
3DD
330
1F
100
AcDbEntity
  8
0
 62
     3
100
AcDbCircle
 10
640.5300914130071
 20
-156.2705714372567
 30
0.0
 40
49.0
100
AcDbArc
 50
359.9999999999996
 51
90.0
  0
ARC
  5
3DE
330
1F
100
AcDbEntity
  8
0
 62
     3
100
AcDbCircle
 10
582.5300914130071
 20
-175.7705714372569
 30
0.0
 40
3.0
100
AcDbArc
 50
180.0
 51
270.0
  0
ARC
  5
3DF
330
1F
100
AcDbEntity
  8
0
 62
     3
100
AcDbCircle
 10
686.5300914130069
 20
-175.7705714372569
 30
0.0
 40
3.0
100
AcDbArc
 50
270.0
 51
359.9999999999994
  0
ARC
  5
3E0
330
1F
100
AcDbEntity
  8
0
 62
     3
100
AcDbCircle
 10
590.1594930397598
 20
-188.7705714372569
 30
0.0
 40
10.0
100
AcDbArc
 50
36.22154661983518
 51
90.0
  0
ARC
  5
3E1
330
1F
100
AcDbEntity
  8
0
 62
     3
100
AcDbCircle
 10
678.9006897862541
 20
-188.7705714372569
 30
0.0
 40
10.0
100
AcDbArc
 50
90.0
 51
143.778453380165
  0
LINE
  5
3E2
330
1F
100
AcDbEntity
  8
0
 62
     3
100
AcDbLine
 10
589.5300914130069
 20
-178.7705714372569
 30
0.0
 11
589.5300914130069
 21
-181.7705714372567
 31
0.0
  0
LINE
  5
3E3
330
1F
100
AcDbEntity
  8
0
 62
     3
100
AcDbLine
 10
679.5300914130069
 20
-178.7705714372569
 30
0.0
 11
679.5300914130069
 21
-181.7705714372568
 31
0.0
  0
CIRCLE
  5
3E4
330
1F
100
AcDbEntity
  8
0
 62
     3
100
AcDbCircle
 10
634.5300914130071
 20
-156.2705714372569
 30
0.0
 40
21.0
  0
ARC
  5
3E5
330
1F
100
AcDbEntity
  8
0
 62
     3
100
AcDbCircle
 10
126.0019768487672
 20
-198.2705714372569
 30
0.0
 40
3.0
100
AcDbArc
 50
179.9999999999995
 51
269.9999999999994
  0
ARC
  5
3E6
330
1F
100
AcDbEntity
  8
0
 62
     3
100
AcDbCircle
 10
142.0019768487674
 20
-198.270571437257
 30
0.0
 40
3.0
100
AcDbArc
 50
269.9999999999994
 51
360.0
  0
ARC
  5
3E7
330
1F
100
AcDbEntity
  8
0
 62
     3
100
AcDbCircle
 10
142.0019768487674
 20
-175.7705714372569
 30
0.0
 40
3.0
100
AcDbArc
 50
270.0
 51
360.0
  0
ARC
  5
3E8
330
1F
100
AcDbEntity
  8
0
 62
     3
100
AcDbCircle
 10
49.00197684876736
 20
-181.7705714372569
 30
0.0
 40
3.0
100
AcDbArc
 50
90.0
 51
180.0
  0
LINE
  5
3E9
330
1F
100
AcDbEntity
  8
0
 62
     3
100
AcDbLine
 10
624.361372565221
 20
-163.1013588731741
 30
0.0
 11
633.6988153895441
 21
-168.4923340013396
 31
0.0
  0
LINE
  5
3EA
330
1F
100
AcDbEntity
  8
0
 62
     3
100
AcDbLine
 10
635.3613674364699
 20
-168.4923340013396
 30
0.0
 11
644.6988102607929
 21
-163.1013588731741
 31
0.0
  0
LINE
  5
3EB
330
1F
100
AcDbEntity
  8
0
 62
     3
100
AcDbLine
 10
645.5300862842557
 20
-161.6615465654225
 30
0.0
 11
645.5300862842557
 21
-150.8795963090913
 31
0.0
  0
LINE
  5
3EC
330
1F
100
AcDbEntity
  8
0
 62
     3
100
AcDbLine
 10
644.6988102607929
 20
-149.4397840013397
 30
0.0
 11
635.3613674364699
 21
-144.0488088731741
 31
0.0
  0
LINE
  5
3ED
330
1F
100
AcDbEntity
  8
0
 62
     3
100
AcDbLine
 10
633.6988153895441
 20
-144.0488088731741
 30
0.0
 11
624.3613725652213
 21
-149.4397840013397
 31
0.0
  0
LINE
  5
3EE
330
1F
100
AcDbEntity
  8
0
 62
     3
100
AcDbLine
 10
623.5300965417582
 20
-150.8795963090913
 30
0.0
 11
623.5300965417582
 21
-161.6615465654224
 31
0.0
  0
ARC
  5
3EF
330
1F
100
AcDbEntity
  8
0
 62
     3
100
AcDbCircle
 10
634.5300914130069
 20
-156.2705714372569
 30
0.0
 40
12.24999999999996
100
AcDbArc
 50
266.1089601865112
 51
273.8910398134888
  0
ARC
  5
3F0
330
1F
100
AcDbEntity
  8
0
 62
     3
100
AcDbCircle
 10
634.5300914130069
 20
-156.2705714372569
 30
0.0
 40
12.24999999999996
100
AcDbArc
 50
326.1089601865111
 51
333.8910398134888
  0
ARC
  5
3F1
330
1F
100
AcDbEntity
  8
0
 62
     3
100
AcDbCircle
 10
634.5300914130069
 20
-156.2705714372569
 30
0.0
 40
12.24999999999996
100
AcDbArc
 50
26.10896018651113
 51
33.8910398134887
  0
ARC
  5
3F2
330
1F
100
AcDbEntity
  8
0
 62
     3
100
AcDbCircle
 10
634.5300914130069
 20
-156.2705714372569
 30
0.0
 40
12.24999999999996
100
AcDbArc
 50
86.10896018651116
 51
93.89103981348873
  0
ARC
  5
3F3
330
1F
100
AcDbEntity
  8
0
 62
     3
100
AcDbCircle
 10
634.5300914130069
 20
-156.2705714372569
 30
0.0
 40
12.24999999999996
100
AcDbArc
 50
146.1089601865111
 51
153.8910398134887
  0
ARC
  5
3F4
330
1F
100
AcDbEntity
  8
0
 62
     3
100
AcDbCircle
 10
634.5300914130069
 20
-156.2705714372569
 30
0.0
 40
12.24999999999996
100
AcDbArc
 50
206.1089601865111
 51
213.8910398134887
  0
CIRCLE
  5
3F5
330
1F
100
AcDbEntity
  8
0
 62
     3
100
AcDbCircle
 10
634.5300914130069
 20
-156.2705714372569
 30
0.0
 40
10.24999999999997
  0
LINE
  5
3F6
330
1F
100
AcDbEntity
  8
0
 62
     3
100
AcDbLine
 10
220.0019768487677
 20
289.5595412287337
 30
0.0
 11
243.0019768487676
 21
289.5595412287337
 31
0.0
  0
LINE
  5
3F7
330
1F
100
AcDbEntity
  8
0
 62
     3
100
AcDbLine
 10
220.0019768487677
 20
287.896989181808
 30
0.0
 11
243.0019768487676
 21
287.896989181808
 31
0.0
  0
LINE
  5
3F8
330
1F
100
AcDbEntity
  8
0
 62
     3
100
AcDbLine
 10
243.0019768487676
 20
289.5595412287337
 30
0.0
 11
243.0019768487676
 21
287.896989181808
 31
0.0
  0
LINE
  5
3F9
330
1F
100
AcDbEntity
  8
0
 62
     3
100
AcDbLine
 10
220.0019768487677
 20
299.7282600765195
 30
0.0
 11
244.2519819775187
 21
299.7282600765195
 31
0.0
  0
LINE
  5
3FA
330
1F
100
AcDbEntity
  8
0
 62
     3
100
AcDbLine
 10
220.0019768487677
 20
277.728270334022
 30
0.0
 11
244.2519819775187
 21
277.728270334022
 31
0.0
  0
LINE
  5
3FB
330
1F
100
AcDbEntity
  8
0
 62
     3
100
AcDbLine
 10
244.2519819775187
 20
299.7282600765195
 30
0.0
 11
245.0019768487676
 21
298.9782652052708
 31
0.0
  0
LINE
  5
3FC
330
1F
100
AcDbEntity
  8
0
 62
     3
100
AcDbLine
 10
220.0019768487677
 20
298.8969840530567
 30
0.0
 11
243.0019768487676
 21
298.8969840530567
 31
0.0
  0
ARC
  5
3FD
330
1F
100
AcDbEntity
  8
0
 62
     3
100
AcDbCircle
 10
234.9082313364243
 20
294.2282626408952
 30
0.0
 40
9.343750641094429
100
AcDbArc
 50
330.022329088231
 51
29.97767091176871
  0
LINE
  5
3FE
330
1F
100
AcDbEntity
  8
0
 62
     3
100
AcDbLine
 10
243.0019768487676
 20
298.8969840530567
 30
0.0
 11
243.0019768487676
 21
299.7282600765195
 31
0.0
  0
LINE
  5
3FF
330
1F
100
AcDbEntity
  8
0
 62
     3
100
AcDbLine
 10
220.0019768487677
 20
278.5595463574849
 30
0.0
 11
243.0019768487676
 21
278.5595463574849
 31
0.0
  0
ARC
  5
400
330
1F
100
AcDbEntity
  8
0
 62
     3
100
AcDbCircle
 10
234.9082313364243
 20
283.2282677696463
 30
0.0
 40
9.343750641094429
100
AcDbArc
 50
330.0223290882313
 51
29.97767091176905
  0
LINE
  5
401
330
1F
100
AcDbEntity
  8
0
 62
     3
100
AcDbLine
 10
243.0019768487676
 20
278.5595463574849
 30
0.0
 11
243.0019768487676
 21
277.728270334022
 31
0.0
  0
LINE
  5
402
330
1F
100
AcDbEntity
  8
0
 62
     3
100
AcDbLine
 10
244.2519819775187
 20
277.728270334022
 30
0.0
 11
245.0019768487676
 21
278.4782652052709
 31
0.0
  0
LINE
  5
403
330
1F
100
AcDbEntity
  8
0
 62
     3
100
AcDbLine
 10
-423.9980231512328
 20
-308.2705714372569
 30
0.0
 11
-405.9980231512328
 21
-308.2705714372569
 31
0.0
  0
LINE
  5
404
330
1F
100
AcDbEntity
  8
0
 62
     3
100
AcDbLine
 10
-423.9980231512328
 20
-300.2705714372569
 30
0.0
 11
-734.9980231512325
 21
-300.2705714372569
 31
0.0
  0
LINE
  5
405
330
1F
100
AcDbEntity
  8
0
 62
     3
100
AcDbLine
 10
85.00197684876753
 20
-300.2705714372569
 30
0.0
 11
-405.9980231512328
 21
-300.2705714372569
 31
0.0
  0
LINE
  5
406
330
1F
100
AcDbEntity
  8
0
 62
     3
100
AcDbLine
 10
725.0300914130069
 20
-300.2705714372568
 30
0.0
 11
725.0300914130069
 21
-308.2705714372568
 31
0.0
  0
LINE
  5
407
330
1F
100
AcDbEntity
  8
0
 62
     3
100
AcDbLine
 10
750.0300914130069
 20
-300.2705714372569
 30
0.0
 11
750.0300914130069
 21
-308.2705714372568
 31
0.0
  0
LINE
  5
408
330
1F
100
AcDbEntity
  8
0
 62
     3
100
AcDbLine
 10
725.0300914130069
 20
-308.2705714372568
 30
0.0
 11
750.0300914130069
 21
-308.2705714372568
 31
0.0
  0
LINE
  5
409
330
1F
100
AcDbEntity
  8
0
 62
     3
100
AcDbLine
 10
544.0300914130069
 20
-300.2705714372568
 30
0.0
 11
544.0300914130069
 21
-308.2705714372568
 31
0.0
  0
LINE
  5
40A
330
1F
100
AcDbEntity
  8
0
 62
     3
100
AcDbLine
 10
519.0300914130069
 20
-300.2705714372569
 30
0.0
 11
519.0300914130069
 21
-308.2705714372568
 31
0.0
  0
LINE
  5
40B
330
1F
100
AcDbEntity
  8
0
 62
     3
100
AcDbLine
 10
544.0300914130069
 20
-308.2705714372568
 30
0.0
 11
519.0300914130069
 21
-308.2705714372568
 31
0.0
  0
LINE
  5
40C
330
1F
100
AcDbEntity
  8
0
 62
     3
100
AcDbLine
 10
456.5779712304463
 20
486.3034764942017
 30
0.0
 11
467.5779661016951
 21
479.9526264942018
 31
0.0
  0
LINE
  5
40D
330
1F
100
AcDbEntity
  8
0
 62
     3
100
AcDbLine
 10
467.5779661016951
 20
479.9526264942018
 30
0.0
 11
478.5779609729439
 21
486.3034764942017
 31
0.0
  0
LINE
  5
40E
330
1F
100
AcDbEntity
  8
0
 62
     3
100
AcDbLine
 10
478.5779609729439
 20
486.3034764942017
 30
0.0
 11
478.5779609729439
 21
499.0051764942017
 31
0.0
  0
LINE
  5
40F
330
1F
100
AcDbEntity
  8
0
 62
     3
100
AcDbLine
 10
478.5779609729439
 20
499.0051764942017
 30
0.0
 11
467.577966101695
 21
505.3560264942016
 31
0.0
  0
LINE
  5
410
330
1F
100
AcDbEntity
  8
0
 62
     3
100
AcDbLine
 10
467.577966101695
 20
505.3560264942016
 30
0.0
 11
456.5779712304463
 21
499.0051764942017
 31
0.0
  0
LINE
  5
411
330
1F
100
AcDbEntity
  8
0
 62
     3
100
AcDbLine
 10
456.5779712304463
 20
499.0051764942017
 30
0.0
 11
456.5779712304463
 21
486.3034764942017
 31
0.0
  0
POINT
  5
412
330
1F
100
AcDbEntity
  8
0
  6
CONTINUOUS
 62
     5
100
AcDbPoint
 10
-1128.004014272971
 20
-470.6507582515611
 30
0.0
  0
LINE
  5
413
330
1F
100
AcDbEntity
  8
0
  6
DASHED2
 62
     5
100
AcDbLine
 10
527.5779661016952
 20
505.6543264942017
 30
0.0
 11
572.5779661016952
 21
505.6543264942017
 31
0.0
  0
LINE
  5
414
330
1F
100
AcDbEntity
  8
0
  6
DASHED2
 62
     5
100
AcDbLine
 10
527.5779661016952
 20
479.6543264942017
 30
0.0
 11
572.5779661016952
 21
479.6543264942017
 31
0.0
  0
LINE
  5
415
330
1F
100
AcDbEntity
  8
0
  6
DASHED2
 62
     5
100
AcDbLine
 10
547.5779661016952
 20
479.6543264942017
 30
0.0
 11
547.5779661016952
 21
505.6543264942017
 31
0.0
  0
LINE
  5
416
330
1F
100
AcDbEntity
  8
0
  6
DASHED2
 62
     5
100
AcDbLine
 10
547.5779661016952
 20
499.0051764942017
 30
0.0
 11
572.5779661016952
 21
499.0051764942017
 31
0.0
  0
LINE
  5
417
330
1F
100
AcDbEntity
  8
0
  6
DASHED2
 62
     5
100
AcDbLine
 10
547.5779661016952
 20
486.3034764942017
 30
0.0
 11
572.5779661016952
 21
486.3034764942017
 31
0.0
  0
LINE
  5
418
330
1F
100
AcDbEntity
  8
0
  6
DASHED2
 62
     5
100
AcDbLine
 10
572.5779661016952
 20
479.1543264942017
 30
0.0
 11
572.5779661016952
 21
506.1543264942017
 31
0.0
  0
LINE
  5
419
330
1F
100
AcDbEntity
  8
0
  6
DASHED2
 62
     5
100
AcDbLine
 10
572.5779661016952
 20
506.1543264942017
 30
0.0
 11
587.5779661016952
 21
506.1543264942017
 31
0.0
  0
LINE
  5
41A
330
1F
100
AcDbEntity
  8
0
  6
DASHED2
 62
     5
100
AcDbLine
 10
572.5779661016952
 20
479.1543264942017
 30
0.0
 11
587.5779661016952
 21
479.1543264942017
 31
0.0
  0
LINE
  5
41B
330
1F
100
AcDbEntity
  8
0
  6
DASHED2
 62
     5
100
AcDbLine
 10
587.5779661016952
 20
506.1543264942017
 30
0.0
 11
587.5779661016952
 21
479.1543264942017
 31
0.0
  0
LINE
  5
41C
330
1F
100
AcDbEntity
  8
0
  6
DASHED2
 62
     5
100
AcDbLine
 10
587.5779661016952
 20
503.6543264942017
 30
0.0
 11
607.5779661016952
 21
503.6543264942017
 31
0.0
  0
LINE
  5
41D
330
1F
100
AcDbEntity
  8
0
  6
DASHED2
 62
     5
100
AcDbLine
 10
587.5779661016952
 20
481.6543264942017
 30
0.0
 11
607.5779661016952
 21
481.6543264942017
 31
0.0
  0
LINE
  5
41E
330
1F
100
AcDbEntity
  8
0
  6
DASHED2
 62
     5
100
AcDbLine
 10
607.5779661016952
 20
503.6543264942017
 30
0.0
 11
607.5779661016952
 21
481.6543264942017
 31
0.0
  0
LINE
  5
41F
330
1F
100
AcDbEntity
  8
0
  6
DASHED2
 62
     5
100
AcDbLine
 10
607.5779661016952
 20
481.6543264942017
 30
0.0
 11
613.928819062781
 21
492.6543264942016
 31
0.0
  0
LINE
  5
420
330
1F
100
AcDbEntity
  8
0
  6
DASHED2
 62
     5
100
AcDbLine
 10
607.5779661016952
 20
503.6543264942017
 30
0.0
 11
613.928819062781
 21
492.6543264942016
 31
0.0
  0
LINE
  5
421
330
1F
100
AcDbEntity
  8
0
  6
CENTER
 62
     2
100
AcDbLine
 10
-414.9980231512328
 20
-259.3290021978194
 30
0.0
 11
-414.9980231512328
 21
-308.0424076160147
 31
0.0
  0
LINE
  5
422
330
1F
100
AcDbEntity
  8
0
  6
CENTER
 62
     2
100
AcDbLine
 10
-78.79433582599731
 20
-239.2705714372569
 30
0.0
 11
-28.32541529461557
 21
-239.2705714372569
 31
0.0
  0
LINE
  5
423
330
1F
100
AcDbEntity
  8
0
  6
CENTER
 62
     2
100
AcDbLine
 10
-53.99802315123245
 20
-212.7496294904492
 30
0.0
 11
-53.99802315123245
 21
-264.4342902408536
 31
0.0
  0
LINE
  5
424
330
1F
100
AcDbEntity
  8
0
  6
CENTER
 62
     2
100
AcDbLine
 10
-192.7943358259973
 20
-239.2705714372569
 30
0.0
 11
-142.3254152946155
 21
-239.2705714372569
 31
0.0
  0
LINE
  5
425
330
1F
100
AcDbEntity
  8
0
  6
CENTER
 62
     2
100
AcDbLine
 10
-167.9980231512325
 20
-212.7496294904492
 30
0.0
 11
-167.9980231512325
 21
-264.4342902408536
 31
0.0
  0
LINE
  5
426
330
1F
100
AcDbEntity
  8
0
  6
CENTER
 62
     2
100
AcDbLine
 10
-306.7943358259973
 20
-239.2705714372569
 30
0.0
 11
-256.3254152946156
 21
-239.2705714372569
 31
0.0
  0
LINE
  5
427
330
1F
100
AcDbEntity
  8
0
  6
CENTER
 62
     2
100
AcDbLine
 10
-281.9980231512324
 20
-212.7496294904492
 30
0.0
 11
-281.9980231512324
 21
-264.4342902408536
 31
0.0
  0
LINE
  5
428
330
1F
100
AcDbEntity
  8
0
  6
CENTER
 62
     2
100
AcDbLine
 10
634.5300914130069
 20
-101.5205714372568
 30
0.0
 11
634.5300914130069
 21
-300.2705714372568
 31
0.0
  0
LINE
  5
429
330
1F
100
AcDbEntity
  8
0
  6
CENTER
 62
     2
100
AcDbLine
 10
791.2962567406139
 20
-239.2705714372567
 30
0.0
 11
548.3120823288647
 21
-239.270571437257
 31
0.0
  0
LINE
  5
42A
330
1F
100
AcDbEntity
  8
0
  6
CENTER
 62
     2
100
AcDbLine
 10
267.0019768487676
 20
-156.2705714372569
 30
0.0
 11
24.00197684876736
 21
-156.2705714372569
 31
0.0
  0
LINE
  5
42B
330
1F
100
AcDbEntity
  8
0
  6
CENTER
 62
     2
100
AcDbLine
 10
585.1219430702345
 20
-156.2705714372569
 30
0.0
 11
694.0936876573528
 21
-156.2705714372569
 31
0.0
  0
LINE
  5
42C
330
1F
100
AcDbEntity
  8
0
  6
CENTER
 62
     2
100
AcDbLine
 10
-414.9980231512325
 20
443.7282652052708
 30
0.0
 11
-414.9980231512325
 21
133.7282652052708
 31
0.0
  0
LINE
  5
42D
330
1F
100
AcDbEntity
  8
0
  6
CENTER
 62
     2
100
AcDbLine
 10
234.0019768487677
 20
-406.2705714372569
 30
0.0
 11
364.0019768487678
 21
-406.2705714372568
 31
0.0
  0
LINE
  5
42E
330
1F
100
AcDbEntity
  8
0
  6
CENTER
 62
     2
100
AcDbLine
 10
-429.9980231512325
 20
423.7282652052708
 30
0.0
 11
-399.9980231512325
 21
423.7282652052708
 31
0.0
  0
LINE
  5
42F
330
1F
100
AcDbEntity
  8
0
  6
CENTER
 62
     2
100
AcDbLine
 10
-429.9980231512325
 20
153.7282652052708
 30
0.0
 11
-399.9980231512325
 21
153.7282652052708
 31
0.0
  0
LINE
  5
430
330
1F
100
AcDbEntity
  8
0
  6
CENTER
 62
     2
100
AcDbLine
 10
-299.9980231512324
 20
153.7282652052708
 30
0.0
 11
-169.9980231512324
 21
153.7282652052708
 31
0.0
  0
LINE
  5
431
330
1F
100
AcDbEntity
  8
0
  6
CENTER
 62
     2
100
AcDbLine
 10
-284.9980231512324
 20
168.7282652052708
 30
0.0
 11
-284.9980231512324
 21
138.7282652052708
 31
0.0
  0
LINE
  5
432
330
1F
100
AcDbEntity
  8
0
  6
CENTER
 62
     2
100
AcDbLine
 10
-184.9980231512324
 20
163.7282652052708
 30
0.0
 11
-184.9980231512324
 21
138.7282652052708
 31
0.0
  0
LINE
  5
433
330
1F
100
AcDbEntity
  8
0
  6
CENTER
 62
     2
100
AcDbLine
 10
-299.9980231512324
 20
423.7282652052708
 30
0.0
 11
-169.9980231512324
 21
423.7282652052708
 31
0.0
  0
LINE
  5
434
330
1F
100
AcDbEntity
  8
0
  6
CENTER
 62
     2
100
AcDbLine
 10
-284.9980231512324
 20
408.7282652052708
 30
0.0
 11
-284.9980231512324
 21
438.7282652052708
 31
0.0
  0
LINE
  5
435
330
1F
100
AcDbEntity
  8
0
  6
CENTER
 62
     2
100
AcDbLine
 10
-184.9980231512324
 20
413.7282652052708
 30
0.0
 11
-184.9980231512324
 21
438.7282652052708
 31
0.0
  0
ARC
  5
436
330
1F
100
AcDbEntity
  8
0
  6
CENTER
 62
     2
100
AcDbCircle
 10
-414.9980231512325
 20
288.7282652052708
 30
0.0
 40
135.0
100
AcDbArc
 50
109.5731258304102
 51
250.4268741695898
  0
ARC
  5
437
330
1F
100
AcDbEntity
  8
0
  6
CENTER
 62
     2
100
AcDbCircle
 10
-414.9980231512325
 20
288.7282652052708
 30
0.0
 40
135.0
100
AcDbArc
 50
289.5731258304102
 51
70.42687416958984
  0
LINE
  5
438
330
1F
100
AcDbEntity
  8
0
  6
CENTER
 62
     2
100
AcDbLine
 10
-734.9980231512325
 20
288.7282652052708
 30
0.0
 11
-527.8266099534214
 21
288.7282652052708
 31
0.0
  0
LINE
  5
439
330
1F
100
AcDbEntity
  8
0
  6
CENTER
 62
     2
100
AcDbLine
 10
-508.2588117998944
 20
288.7282652052708
 30
0.0
 11
-313.3424955056987
 21
288.7282652052708
 31
0.0
  0
LINE
  5
43A
330
1F
100
AcDbEntity
  8
0
  6
CENTER
 62
     2
100
AcDbLine
 10
-293.7746973521717
 20
288.7282652052708
 30
0.0
 11
267.0019768487676
 21
288.7282652052708
 31
0.0
  0
LINE
  5
43B
330
1F
100
AcDbEntity
  8
0
  6
CENTER
 62
     2
100
AcDbLine
 10
-704.9980231512325
 20
273.7282652052708
 30
0.0
 11
-704.9980231512325
 21
303.7282652052708
 31
0.0
  0
LINE
  5
43C
330
1F
100
AcDbEntity
  8
0
  6
CENTER
 62
     2
100
AcDbLine
 10
-704.9980231512325
 20
-267.2705714372569
 30
0.0
 11
-704.9980231512325
 21
-307.0695807314896
 31
0.0
  0
LINE
  5
43D
330
1F
100
AcDbEntity
  8
0
  6
CENTER
 62
     2
100
AcDbLine
 10
55.00197684876753
 20
-261.4478144513826
 30
0.0
 11
55.00197684876753
 21
-308.5735950044601
 31
0.0
  0
LINE
  5
43E
330
1F
100
AcDbEntity
  8
0
  6
CENTER
 62
     2
100
AcDbLine
 10
527.5779661016952
 20
492.6543264942017
 30
0.0
 11
782.5779661016952
 21
492.6543264942017
 31
0.0
  0
LINE
  5
43F
330
1F
100
AcDbEntity
  8
0
 62
     7
100
AcDbLine
 10
754.5300914130071
 20
-223.2705714372566
 30
0.0
 11
754.5300914130069
 21
-239.2705714372567
 31
0.0
  0
LINE
  5
440
330
1F
100
AcDbEntity
  8
0
 62
     7
100
AcDbLine
 10
769.5300914130066
 20
-223.2705714372566
 30
0.0
 11
769.5300914130062
 21
-239.2705714372567
 31
0.0
  0
LINE
  5
441
330
1F
100
AcDbEntity
  8
0
 62
     7
100
AcDbLine
 10
782.5300914130071
 20
-223.2705714372566
 30
0.0
 11
769.5300914130064
 21
-223.2705714372571
 31
0.0
  0
LINE
  5
442
330
1F
100
AcDbEntity
  8
0
 62
     7
100
AcDbLine
 10
754.5300914130069
 20
-223.2705714372565
 30
0.0
 11
712.0300914130069
 21
-223.2705714372567
 31
0.0
  0
LINE
  5
443
330
1F
100
AcDbEntity
  8
0
 62
     7
100
AcDbLine
 10
782.5300914130066
 20
-223.2705714372566
 30
0.0
 11
782.5300914130064
 21
-239.2705714372567
 31
0.0
  0
ARC
  5
444
330
1F
100
AcDbEntity
  8
0
 62
     7
100
AcDbCircle
 10
719.5300914130141
 20
-239.2705714372565
 30
0.0
 40
64.99999999999282
100
AcDbArc
 50
359.9999999999997
 51
14.25003269780501
  0
ARC
  5
445
330
1F
100
AcDbEntity
  8
0
 62
     7
100
AcDbCircle
 10
762.0300914130078
 20
-221.5830714372579
 30
0.0
 40
7.687500000000449
100
AcDbArc
 50
192.6803834918099
 51
347.3196165081905
  0
LINE
  5
446
330
1F
100
AcDbEntity
  8
0
 62
     7
100
AcDbLine
 10
754.5300914130071
 20
-255.270571437257
 30
0.0
 11
754.5300914130069
 21
-239.2705714372567
 31
0.0
  0
LINE
  5
447
330
1F
100
AcDbEntity
  8
0
 62
     7
100
AcDbLine
 10
769.5300914130066
 20
-255.270571437257
 30
0.0
 11
769.5300914130062
 21
-239.2705714372567
 31
0.0
  0
LINE
  5
448
330
1F
100
AcDbEntity
  8
0
 62
     7
100
AcDbLine
 10
782.5300914130071
 20
-255.2705714372569
 30
0.0
 11
769.5300914130064
 21
-255.2705714372564
 31
0.0
  0
LINE
  5
449
330
1F
100
AcDbEntity
  8
0
 62
     7
100
AcDbLine
 10
754.5300914130069
 20
-255.270571437257
 30
0.0
 11
712.0300914130069
 21
-255.270571437257
 31
0.0
  0
LINE
  5
44A
330
1F
100
AcDbEntity
  8
0
 62
     7
100
AcDbLine
 10
782.5300914130066
 20
-255.2705714372569
 30
0.0
 11
782.5300914130064
 21
-239.2705714372567
 31
0.0
  0
ARC
  5
44B
330
1F
100
AcDbEntity
  8
0
 62
     7
100
AcDbCircle
 10
719.5300914130139
 20
-239.2705714372572
 30
0.0
 40
64.99999999999282
100
AcDbArc
 50
345.7499673021952
 51
0.0000000000004547
  0
ARC
  5
44C
330
1F
100
AcDbEntity
  8
0
 62
     7
100
AcDbCircle
 10
762.0300914130078
 20
-256.9580714372556
 30
0.0
 40
7.687500000000449
100
AcDbArc
 50
12.68038349180975
 51
167.3196165081903
  0
POINT
  5
44D
330
1F
100
AcDbEntity
  8
0
  6
CONTINUOUS
 62
     7
100
AcDbPoint
 10
-1204.50401427297
 20
-712.150758251561
 30
0.0
  0
POINT
  5
44E
330
1F
100
AcDbEntity
  8
0
  6
CONTINUOUS
 62
     7
100
AcDbPoint
 10
-844.5040142729704
 20
-434.650758251561
 30
0.0
  0
LINE
  5
44F
330
1F
100
AcDbEntity
  8
0
 62
     7
100
AcDbLine
 10
553.5300914130069
 20
-227.6455935798226
 30
0.0
 11
553.5300914130069
 21
-250.8955492946913
 31
0.0
  0
LINE
  5
450
330
1F
100
AcDbEntity
  8
0
 62
     7
100
AcDbLine
 10
554.2712723679044
 20
-226.6796677535336
 30
0.0
 11
557.0300914130069
 21
-225.9404444183348
 31
0.0
  0
LINE
  5
451
330
1F
100
AcDbEntity
  8
0
 62
     7
100
AcDbLine
 10
554.2712723679044
 20
-251.8614751209803
 30
0.0
 11
557.0300914130069
 21
-252.6006984561792
 31
0.0
  0
ARC
  5
452
330
1F
100
AcDbEntity
  8
0
 62
     7
100
AcDbCircle
 10
554.5300914130069
 20
-227.6455935798226
 30
0.0
 40
1.0
100
AcDbArc
 50
105.0000000000016
 51
180.0
  0
ARC
  5
453
330
1F
100
AcDbEntity
  8
0
 62
     7
100
AcDbCircle
 10
554.5300914130069
 20
-250.8955492946913
 30
0.0
 40
1.0
100
AcDbArc
 50
180.0
 51
254.9999999999984
  0
LINE
  5
454
330
1F
100
AcDbEntity
  8
0
 62
     7
100
AcDbLine
 10
231.0019768487677
 20
-183.7705714372569
 30
0.0
 11
231.0019768487677
 21
-196.2705714372569
 31
0.0
  0
LINE
  5
455
330
1F
100
AcDbEntity
  8
0
 62
     7
100
AcDbLine
 10
197.5019768487677
 20
-133.2705714373924
 30
0.0
 11
227.0019768487677
 21
-133.2705714372642
 31
0.0
  0
LINE
  5
456
330
1F
100
AcDbEntity
  8
0
 62
     7
100
AcDbLine
 10
197.5019768487677
 20
-179.2705714372569
 30
0.0
 11
227.0019768487677
 21
-179.2705714372569
 31
0.0
  0
LINE
  5
457
330
1F
100
AcDbEntity
  8
0
 62
     7
100
AcDbLine
 10
235.0019768487677
 20
-130.2705714372569
 30
0.0
 11
239.0019768487677
 21
-130.2705714372569
 31
0.0
  0
LINE
  5
458
330
1F
100
AcDbEntity
  8
0
 62
     7
100
AcDbLine
 10
197.0019768487677
 20
-133.7705714372569
 30
0.0
 11
197.5019768487677
 21
-133.2705714373924
 31
0.0
  0
LINE
  5
459
330
1F
100
AcDbEntity
  8
0
 62
     7
100
AcDbLine
 10
197.0019768487677
 20
-178.7705714372569
 30
0.0
 11
197.5019768487677
 21
-179.2705714372569
 31
0.0
  0
LINE
  5
45A
330
1F
100
AcDbEntity
  8
0
 62
     7
100
AcDbLine
 10
227.0019768487677
 20
-131.7705714372642
 30
0.0
 11
230.6718498298695
 21
-131.7705714372483
 31
0.0
  0
LINE
  5
45B
330
1F
100
AcDbEntity
  8
0
 62
     7
100
AcDbLine
 10
227.0019768487677
 20
-180.7705714372569
 30
0.0
 11
228.0019768487677
 21
-180.7705714372569
 31
0.0
  0
ARC
  5
45C
330
1F
100
AcDbEntity
  8
0
 62
     7
100
AcDbCircle
 10
235.0019768487677
 20
-134.2705714372569
 30
0.0
 40
4.0
100
AcDbArc
 50
90.0
 51
128.2132107016242
  0
ARC
  5
45D
330
1F
100
AcDbEntity
  8
0
 62
     7
100
AcDbCircle
 10
239.0019768487677
 20
-134.2705714372569
 30
0.0
 40
4.0
100
AcDbArc
 50
0.0
 51
90.0
  0
ARC
  5
45E
330
1F
100
AcDbEntity
  8
0
 62
     7
100
AcDbCircle
 10
228.0019768487677
 20
-183.7705714372569
 30
0.0
 40
3.0
100
AcDbArc
 50
0.0
 51
90.0
  0
ARC
  5
45F
330
1F
100
AcDbEntity
  8
0
 62
     7
100
AcDbCircle
 10
230.6718498298565
 20
-128.7705714372483
 30
0.0
 40
3.0
100
AcDbArc
 50
270.0000000002486
 51
308.2132107016237
  0
LINE
  5
460
330
1F
100
AcDbEntity
  8
0
 62
     7
100
AcDbLine
 10
234.0019768487677
 20
-386.2705714372569
 30
0.0
 11
234.0019768487677
 21
-416.2705714372569
 31
0.0
  0
LINE
  5
461
330
1F
100
AcDbEntity
  8
0
 62
     7
100
AcDbLine
 10
246.0019768487677
 20
-394.2705714372569
 30
0.0
 11
253.0019768487677
 21
-394.2705714372569
 31
0.0
  0
LINE
  5
462
330
1F
100
AcDbEntity
  8
0
 62
     7
100
AcDbLine
 10
236.0019768487677
 20
-418.2705714372569
 30
0.0
 11
253.0019768487677
 21
-418.2705714372569
 31
0.0
  0
LINE
  5
463
330
1F
100
AcDbEntity
  8
0
 62
     7
100
AcDbLine
 10
253.0019768487677
 20
-394.2705714372569
 30
0.0
 11
253.0019768487677
 21
-418.2705714372569
 31
0.0
  0
ARC
  5
464
330
1F
100
AcDbEntity
  8
0
 62
     7
100
AcDbCircle
 10
246.0019768487677
 20
-398.2705714372569
 30
0.0
 40
3.0
100
AcDbArc
 50
180.0
 51
270.0
  0
ARC
  5
465
330
1F
100
AcDbEntity
  8
0
 62
     7
100
AcDbCircle
 10
246.0019768487677
 20
-391.2705714372569
 30
0.0
 40
3.0
100
AcDbArc
 50
180.0
 51
270.0
  0
ARC
  5
466
330
1F
100
AcDbEntity
  8
0
 62
     7
100
AcDbCircle
 10
236.0019768487677
 20
-416.2705714372569
 30
0.0
 40
2.0
100
AcDbArc
 50
180.0
 51
270.0
  0
LINE
  5
467
330
1F
100
AcDbEntity
  8
0
 62
     7
100
AcDbLine
 10
234.0019768487677
 20
-386.2705714372569
 30
0.0
 11
231.0019768487677
 21
-196.2705714372569
 31
0.0
  0
LINE
  5
468
330
1F
100
AcDbEntity
  8
0
 62
     7
100
AcDbLine
 10
296.0019768487675
 20
-392.270571437257
 30
0.0
 11
268.377132806408
 21
-393.6518136393751
 31
0.0
  0
LINE
  5
469
330
1F
100
AcDbEntity
  8
0
 62
     7
100
AcDbLine
 10
268.377132806408
 20
-418.8893292351386
 30
0.0
 11
296.0019768487677
 21
-420.2705714372567
 31
0.0
  0
ARC
  5
46A
330
1F
100
AcDbEntity
  8
0
 62
     7
100
AcDbCircle
 10
358.9018654900551
 20
-396.270571437257
 30
0.0
 40
4.0
100
AcDbArc
 50
12.55585779858589
 51
90.0
  0
ARC
  5
46B
330
1F
100
AcDbEntity
  8
0
 62
     7
100
AcDbCircle
 10
358.9018654900551
 20
-416.2705714372567
 30
0.0
 40
4.0
100
AcDbArc
 50
269.9999999999992
 51
347.4441422014141
  0
ARC
  5
46C
330
1F
100
AcDbEntity
  8
0
 62
     7
100
AcDbCircle
 10
314.0019768487678
 20
-406.2705714372568
 30
0.0
 40
49.99999999999997
100
AcDbArc
 50
347.4441422014143
 51
12.55585779858581
  0
LINE
  5
46D
330
1F
100
AcDbEntity
  8
0
 62
     7
100
AcDbLine
 10
253.0019768487677
 20
-399.789830738849
 30
0.0
 11
263.0019768487677
 21
-399.789830738849
 31
0.0
  0
LINE
  5
46E
330
1F
100
AcDbEntity
  8
0
 62
     7
100
AcDbLine
 10
253.0019768487677
 20
-412.7513121356647
 30
0.0
 11
263.0019768487677
 21
-412.7513121356647
 31
0.0
  0
LINE
  5
46F
330
1F
100
AcDbEntity
  8
0
 62
     7
100
AcDbLine
 10
266.0019768487677
 20
-416.392448387944
 30
0.0
 11
266.0019768487677
 21
-396.1486944865696
 31
0.0
  0
LINE
  5
470
330
1F
100
AcDbEntity
  8
0
 62
     7
100
AcDbLine
 10
253.5019768487677
 20
-417.7705714372568
 30
0.0
 11
253.5019768487677
 21
-412.7513121356647
 31
0.0
  0
LINE
  5
471
330
1F
100
AcDbEntity
  8
0
 62
     7
100
AcDbLine
 10
253.5019768487677
 20
-417.7705714372568
 30
0.0
 11
265.5019768487677
 21
-417.7705714372568
 31
0.0
  0
LINE
  5
472
330
1F
100
AcDbEntity
  8
0
 62
     7
100
AcDbLine
 10
253.5019768487677
 20
-394.7705714372568
 30
0.0
 11
265.5019768487677
 21
-394.7705714372568
 31
0.0
  0
LINE
  5
473
330
1F
100
AcDbEntity
  8
0
 62
     7
100
AcDbLine
 10
253.0019768487677
 20
-417.2705714372568
 30
0.0
 11
253.5019768487677
 21
-417.7705714372568
 31
0.0
  0
LINE
  5
474
330
1F
100
AcDbEntity
  8
0
 62
     7
100
AcDbLine
 10
265.5019768487677
 20
-417.7705714372568
 30
0.0
 11
266.0019768487677
 21
-417.2705714372568
 31
0.0
  0
LINE
  5
475
330
1F
100
AcDbEntity
  8
0
 62
     7
100
AcDbLine
 10
265.5019768487677
 20
-394.7705714372568
 30
0.0
 11
266.0019768487677
 21
-395.2705714372568
 31
0.0
  0
LINE
  5
476
330
1F
100
AcDbEntity
  8
0
 62
     7
100
AcDbLine
 10
253.5019768487677
 20
-394.7705714372568
 30
0.0
 11
253.0019768487677
 21
-395.2705714372568
 31
0.0
  0
LINE
  5
477
330
1F
100
AcDbEntity
  8
0
 62
     7
100
AcDbLine
 10
358.9018654900551
 20
-420.2705714372567
 30
0.0
 11
296.0019768487677
 21
-420.2705714372567
 31
0.0
  0
LINE
  5
478
330
1F
100
AcDbEntity
  8
0
 62
     7
100
AcDbLine
 10
358.9018654900551
 20
-392.270571437257
 30
0.0
 11
296.0019768487675
 21
-392.270571437257
 31
0.0
  0
LINE
  5
479
330
1F
100
AcDbEntity
  8
0
 62
     7
100
AcDbLine
 10
253.5019768487677
 20
-394.7705714372568
 30
0.0
 11
253.5019768487677
 21
-399.789830738849
 31
0.0
  0
LINE
  5
47A
330
1F
100
AcDbEntity
  8
0
 62
     7
100
AcDbLine
 10
265.5019768487677
 20
-394.7705714372568
 30
0.0
 11
265.5019768487677
 21
-417.7705714372568
 31
0.0
  0
ARC
  5
47B
330
1F
100
AcDbEntity
  8
0
 62
     7
100
AcDbCircle
 10
268.5019768487677
 20
-396.1486944865696
 30
0.0
 40
2.5
100
AcDbArc
 50
92.86240522611196
 51
180.0
  0
ARC
  5
47C
330
1F
100
AcDbEntity
  8
0
 62
     7
100
AcDbCircle
 10
268.5019768487677
 20
-416.392448387944
 30
0.0
 40
2.5
100
AcDbArc
 50
180.0
 51
267.1375947738881
  0
LINE
  5
47D
330
1F
100
AcDbEntity
  8
0
 62
     7
100
AcDbLine
 10
263.0019768487677
 20
-412.7513121356647
 30
0.0
 11
263.0019768487677
 21
-399.789830738849
 31
0.0
  0
LINE
  5
47E
330
1F
100
AcDbEntity
  8
0
 62
     7
100
AcDbLine
 10
296.0019768487675
 20
-392.270571437257
 30
0.0
 11
296.0019768487675
 21
-420.2705714372567
 31
0.0
  0
LINE
  5
47F
330
1F
100
AcDbEntity
  8
0
 62
     7
100
AcDbLine
 10
197.0019768487677
 20
-133.7705714372569
 30
0.0
 11
197.0019768487677
 21
-143.2705714372569
 31
0.0
  0
LINE
  5
480
330
1F
100
AcDbEntity
  8
0
 62
     7
100
AcDbLine
 10
197.0019768487677
 20
-169.2705714372568
 30
0.0
 11
197.0019768487677
 21
-178.7705714372569
 31
0.0
  0
LINE
  5
481
330
1F
100
AcDbEntity
  8
0
 62
     7
100
AcDbLine
 10
227.0019768487677
 20
-131.7705714372642
 30
0.0
 11
227.0019768487677
 21
-133.2705714372642
 31
0.0
  0
LINE
  5
482
330
1F
100
AcDbEntity
  8
0
 62
     7
100
AcDbLine
 10
227.0019768487677
 20
-179.2705714372569
 30
0.0
 11
227.0019768487677
 21
-180.7705714372569
 31
0.0
  0
LINE
  5
483
330
1F
100
AcDbEntity
  8
0
 62
     7
100
AcDbLine
 10
243.0019768487677
 20
-134.2705714372569
 30
0.0
 11
243.0019768487677
 21
-143.2705714372569
 31
0.0
  0
LINE
  5
484
330
1F
100
AcDbEntity
  8
0
 62
     7
100
AcDbLine
 10
243.0019768487676
 20
-169.2705714372568
 30
0.0
 11
243.0019768487677
 21
-398.2705714372569
 31
0.0
  0
LINE
  5
485
330
1F
100
AcDbEntity
  8
0
 62
     7
100
AcDbLine
 10
527.5779661016952
 20
510.6543264942017
 30
0.0
 11
527.5779661016952
 21
474.6543264942017
 31
0.0
  0
LINE
  5
486
330
1F
100
AcDbEntity
  8
0
 62
     7
100
AcDbLine
 10
637.5779661016952
 20
510.6543264942017
 30
0.0
 11
637.5779661016952
 21
474.6543264942017
 31
0.0
  0
LINE
  5
487
330
1F
100
AcDbEntity
  8
0
 62
     7
100
AcDbLine
 10
527.5779661016952
 20
510.6543264942017
 30
0.0
 11
637.5779661016952
 21
510.6543264942017
 31
0.0
  0
LINE
  5
488
330
1F
100
AcDbEntity
  8
0
 62
     7
100
AcDbLine
 10
527.5779661016952
 20
474.6543264942017
 30
0.0
 11
637.5779661016952
 21
474.6543264942017
 31
0.0
  0
LINE
  5
489
330
1F
100
AcDbEntity
  8
0
 62
     7
100
AcDbLine
 10
642.5779661016952
 20
505.6543264942017
 30
0.0
 11
754.1138556033026
 21
505.6543264942017
 31
0.0
  0
LINE
  5
48A
330
1F
100
AcDbEntity
  8
0
 62
     7
100
AcDbLine
 10
642.5779661016952
 20
479.6543264942017
 30
0.0
 11
754.113855603302
 21
479.6543264942017
 31
0.0
  0
LINE
  5
48B
330
1F
100
AcDbEntity
  8
0
 62
     7
100
AcDbLine
 10
637.5779661016952
 20
510.6543264942017
 30
0.0
 11
642.5779661016952
 21
505.6543264942017
 31
0.0
  0
LINE
  5
48C
330
1F
100
AcDbEntity
  8
0
 62
     7
100
AcDbLine
 10
637.5779661016952
 20
474.6543264942017
 30
0.0
 11
642.5779661016952
 21
479.6543264942017
 31
0.0
  0
LINE
  5
48D
330
1F
100
AcDbEntity
  8
0
 62
     7
100
AcDbLine
 10
642.5779661016952
 20
479.6543264942017
 30
0.0
 11
642.5779661016952
 21
505.6543264942017
 31
0.0
  0
LINE
  5
48E
330
1F
100
AcDbEntity
  8
0
 62
     7
100
AcDbLine
 10
782.5779661016952
 20
482.4043264942018
 30
0.0
 11
782.5779661016952
 21
502.9043264942017
 31
0.0
  0
LINE
  5
48F
330
1F
100
AcDbEntity
  8
0
 62
     7
100
AcDbLine
 10
780.5779661016952
 20
504.9043264942017
 30
0.0
 11
782.5779661016952
 21
502.9043264942017
 31
0.0
  0
LINE
  5
490
330
1F
100
AcDbEntity
  8
0
 62
     7
100
AcDbLine
 10
782.5779661016952
 20
482.4043264942018
 30
0.0
 11
780.5779661016952
 21
480.4043264942018
 31
0.0
  0
ARC
  5
491
330
1F
100
AcDbEntity
  8
0
 62
     7
100
AcDbCircle
 10
779.2295074939987
 20
502.4205702121602
 30
0.0
 40
3.230362858944397
100
AcDbArc
 50
294.6725994690231
 51
12.01872623698597
  0
ARC
  5
492
330
1F
100
AcDbEntity
  8
0
 62
     7
100
AcDbCircle
 10
779.2295074939985
 20
482.8880827762432
 30
0.0
 40
3.23036285894441
100
AcDbArc
 50
347.9812737630145
 51
65.32740053097666
  0
ARC
  5
493
330
1F
100
AcDbEntity
  8
0
 62
     7
100
AcDbCircle
 10
773.756081569318
 20
492.6543264942018
 30
0.0
 40
8.694867532377208
100
AcDbArc
 50
321.6825447559753
 51
38.31745524402476
  0
LINE
  5
494
330
1F
100
AcDbEntity
  8
0
 62
     7
100
AcDbLine
 10
780.5779661016952
 20
499.4851139301189
 30
0.0
 11
780.5779661016952
 21
498.0453016223675
 31
0.0
  0
LINE
  5
495
330
1F
100
AcDbEntity
  8
0
 62
     7
100
AcDbLine
 10
780.5779661016952
 20
485.8235390582846
 30
0.0
 11
780.5779661016952
 21
487.2633513660362
 31
0.0
  0
LINE
  5
496
330
1F
100
AcDbEntity
  8
0
 62
     7
100
AcDbLine
 10
780.5779661016952
 20
499.4851139301189
 30
0.0
 11
757.5779661016953
 21
499.4851139301189
 31
0.0
  0
LINE
  5
497
330
1F
100
AcDbEntity
  8
0
 62
     7
100
AcDbLine
 10
780.5779661016952
 20
498.0453016223675
 30
0.0
 11
757.5779661016953
 21
498.0453016223675
 31
0.0
  0
LINE
  5
498
330
1F
100
AcDbEntity
  8
0
 62
     7
100
AcDbLine
 10
780.5779661016952
 20
487.2633513660362
 30
0.0
 11
757.5779661016953
 21
487.2633513660362
 31
0.0
  0
LINE
  5
499
330
1F
100
AcDbEntity
  8
0
 62
     7
100
AcDbLine
 10
757.5779661016953
 20
485.8235390582846
 30
0.0
 11
780.5779661016952
 21
485.8235390582846
 31
0.0
  0
LINE
  5
49A
330
1F
100
AcDbEntity
  8
0
 62
     7
100
AcDbLine
 10
757.5779661016953
 20
480.4043264942018
 30
0.0
 11
780.5779661016952
 21
480.4043264942018
 31
0.0
  0
LINE
  5
49B
330
1F
100
AcDbEntity
  8
0
 62
     7
100
AcDbLine
 10
757.5779661016953
 20
504.9043264942017
 30
0.0
 11
780.5779661016952
 21
504.9043264942017
 31
0.0
  0
LINE
  5
49C
330
1F
100
AcDbEntity
  8
0
 62
     7
100
AcDbLine
 10
757.5779661016953
 20
480.4043264942018
 30
0.0
 11
757.5779661016953
 21
504.9043264942017
 31
0.0
  0
LINE
  5
49D
330
1F
100
AcDbEntity
  8
0
 62
     7
100
AcDbLine
 10
754.1138556033026
 20
505.6543264942017
 30
0.0
 11
754.1138556033026
 21
479.6543264942018
 31
0.0
  0
LINE
  5
49E
330
1F
100
AcDbEntity
  8
0
 62
     7
100
AcDbLine
 10
754.1138556033026
 20
479.6543264942018
 30
0.0
 11
757.5779661016953
 21
480.4043264942018
 31
0.0
  0
LINE
  5
49F
330
1F
100
AcDbEntity
  8
0
 62
     7
100
AcDbLine
 10
754.1138556033026
 20
505.6543264942017
 30
0.0
 11
757.5779661016953
 21
504.9043264942017
 31
0.0
  0
CIRCLE
  5
4A0
330
1F
100
AcDbEntity
  8
0
 62
     7
100
AcDbCircle
 10
467.577966101695
 20
492.6543264942017
 30
0.0
 40
18.0
  0
CIRCLE
  5
4A1
330
1F
100
AcDbEntity
  8
0
 62
     7
100
AcDbCircle
 10
467.577966101695
 20
492.6543264942017
 30
0.0
 40
13.0
  0
CIRCLE
  5
4A2
330
1F
100
AcDbEntity
  8
0
 62
     7
100
AcDbCircle
 10
467.577966101695
 20
492.6543264942017
 30
0.0
 40
11.0
  0
INSERT
  5
4A3
330
1F
100
AcDbEntity
  8
0
  6
CONTINUOUS
100
AcDbBlockReference
  2
GROUP_1
 10
0.0
 20
0.0
 30
0.0
  0
INSERT
  5
4A4
330
1F
100
AcDbEntity
  8
0
  6
CONTINUOUS
100
AcDbBlockReference
  2
GROUP_2
 10
0.0
 20
0.0
 30
0.0
  0
INSERT
  5
4A5
330
1F
100
AcDbEntity
  8
0
  6
CONTINUOUS
100
AcDbBlockReference
  2
GROUP_3
 10
0.0
 20
0.0
 30
0.0
  0
INSERT
  5
4A6
330
1F
100
AcDbEntity
  8
0
  6
CONTINUOUS
100
AcDbBlockReference
  2
GROUP_4
 10
0.0
 20
0.0
 30
0.0
  0
INSERT
  5
4A7
330
1F
100
AcDbEntity
  8
0
  6
CONTINUOUS
100
AcDbBlockReference
  2
GROUP_5
 10
0.0
 20
0.0
 30
0.0
  0
LINE
  5
4A8
330
1F
100
AcDbEntity
  8
LAYER0002
 62
     7
100
AcDbLine
 10
253.0019768487677
 20
-412.7513121356647
 30
0.0
 11
263.0019768487677
 21
-399.789830738849
 31
0.0
  0
LINE
  5
4A9
330
1F
100
AcDbEntity
  8
LAYER0002
 62
     7
100
AcDbLine
 10
253.0019768487677
 20
-399.789830738849
 30
0.0
 11
263.0019768487678
 21
-412.7513121356645
 31
0.0
  0
INSERT
  5
4AA
330
1F
100
AcDbEntity
  8
LAYER0014
  6
CONTINUOUS
100
AcDbBlockReference
  2
DA_IMAGEDIMGROUP_1
 10
0.0
 20
0.0
 30
0.0
  0
INSERT
  5
4AB
330
1F
100
AcDbEntity
  8
LAYER0014
  6
CONTINUOUS
100
AcDbBlockReference
  2
DA_IMAGEDIMGROUP_2
 10
0.0
 20
0.0
 30
0.0
  0
INSERT
  5
4AC
330
1F
100
AcDbEntity
  8
LAYER0014
  6
CONTINUOUS
100
AcDbBlockReference
  2
DA_IMAGEDIMGROUP_3
 10
0.0
 20
0.0
 30
0.0
  0
INSERT
  5
4AD
330
1F
100
AcDbEntity
  8
LAYER0014
  6
CONTINUOUS
100
AcDbBlockReference
  2
DA_IMAGEDIMGROUP_4
 10
0.0
 20
0.0
 30
0.0
  0
INSERT
  5
4AE
330
1F
100
AcDbEntity
  8
LAYER0014
  6
CONTINUOUS
100
AcDbBlockReference
  2
DA_IMAGEDIMGROUP_5
 10
0.0
 20
0.0
 30
0.0
  0
INSERT
  5
4AF
330
1F
100
AcDbEntity
  8
LAYER0014
  6
CONTINUOUS
100
AcDbBlockReference
  2
DA_IMAGEDIMGROUP_6
 10
0.0
 20
0.0
 30
0.0
  0
INSERT
  5
4B0
330
1F
100
AcDbEntity
  8
LAYER0014
  6
CONTINUOUS
100
AcDbBlockReference
  2
DA_IMAGEDIMGROUP_7
 10
0.0
 20
0.0
 30
0.0
  0
INSERT
  5
4B1
330
1F
100
AcDbEntity
  8
LAYER0014
  6
CONTINUOUS
100
AcDbBlockReference
  2
DA_IMAGEDIMGROUP_8
 10
0.0
 20
0.0
 30
0.0
  0
INSERT
  5
4B2
330
1F
100
AcDbEntity
  8
LAYER0014
  6
CONTINUOUS
100
AcDbBlockReference
  2
DA_IMAGEDIMGROUP_9
 10
0.0
 20
0.0
 30
0.0
  0
INSERT
  5
4B3
330
1F
100
AcDbEntity
  8
LAYER0014
  6
CONTINUOUS
100
AcDbBlockReference
  2
DA_IMAGEDIMGROUP_10
 10
0.0
 20
0.0
 30
0.0
  0
INSERT
  5
4B4
330
1F
100
AcDbEntity
  8
LAYER0014
  6
CONTINUOUS
100
AcDbBlockReference
  2
DA_IMAGEDIMGROUP_11
 10
0.0
 20
0.0
 30
0.0
  0
INSERT
  5
4B5
330
1F
100
AcDbEntity
  8
LAYER0014
  6
CONTINUOUS
100
AcDbBlockReference
  2
DA_IMAGEDIMGROUP_12
 10
0.0
 20
0.0
 30
0.0
  0
INSERT
  5
4B6
330
1F
100
AcDbEntity
  8
LAYER0014
  6
CONTINUOUS
100
AcDbBlockReference
  2
DA_IMAGEDIMGROUP_13
 10
0.0
 20
0.0
 30
0.0
  0
INSERT
  5
4B7
330
1F
100
AcDbEntity
  8
LAYER0014
  6
CONTINUOUS
100
AcDbBlockReference
  2
DA_IMAGEDIMGROUP_14
 10
0.0
 20
0.0
 30
0.0
  0
INSERT
  5
4B8
330
1F
100
AcDbEntity
  8
LAYER0014
  6
CONTINUOUS
100
AcDbBlockReference
  2
DA_IMAGEDIMGROUP_15
 10
0.0
 20
0.0
 30
0.0
  0
INSERT
  5
4B9
330
1F
100
AcDbEntity
  8
LAYER0014
  6
CONTINUOUS
100
AcDbBlockReference
  2
DA_IMAGEDIMGROUP_16
 10
0.0
 20
0.0
 30
0.0
  0
INSERT
  5
4BA
330
1F
100
AcDbEntity
  8
LAYER0014
  6
CONTINUOUS
100
AcDbBlockReference
  2
DA_IMAGEDIMGROUP_17
 10
0.0
 20
0.0
 30
0.0
  0
INSERT
  5
4BB
330
1F
100
AcDbEntity
  8
LAYER0014
  6
CONTINUOUS
100
AcDbBlockReference
  2
DA_IMAGEDIMGROUP_18
 10
0.0
 20
0.0
 30
0.0
  0
INSERT
  5
4BC
330
1F
100
AcDbEntity
  8
LAYER0014
  6
CONTINUOUS
100
AcDbBlockReference
  2
DA_IMAGEDIMGROUP_19
 10
0.0
 20
0.0
 30
0.0
  0
INSERT
  5
4BD
330
1F
100
AcDbEntity
  8
LAYER0014
  6
CONTINUOUS
100
AcDbBlockReference
  2
DA_IMAGEDIMGROUP_20
 10
0.0
 20
0.0
 30
0.0
  0
INSERT
  5
4BE
330
1F
100
AcDbEntity
  8
LAYER0014
  6
CONTINUOUS
100
AcDbBlockReference
  2
DA_IMAGEDIMGROUP_21
 10
0.0
 20
0.0
 30
0.0
  0
INSERT
  5
4BF
330
1F
100
AcDbEntity
  8
LAYER0014
  6
CONTINUOUS
100
AcDbBlockReference
  2
DA_IMAGEDIMGROUP_22
 10
0.0
 20
0.0
 30
0.0
  0
INSERT
  5
4C0
330
1F
100
AcDbEntity
  8
LAYER0014
  6
CONTINUOUS
100
AcDbBlockReference
  2
DA_IMAGEDIMGROUP_23
 10
0.0
 20
0.0
 30
0.0
  0
INSERT
  5
4C1
330
1F
100
AcDbEntity
  8
LAYER0014
  6
CONTINUOUS
100
AcDbBlockReference
  2
DA_IMAGEDIMGROUP_24
 10
0.0
 20
0.0
 30
0.0
  0
INSERT
  5
4C2
330
1F
100
AcDbEntity
  8
LAYER0014
  6
CONTINUOUS
100
AcDbBlockReference
  2
DA_IMAGEDIMGROUP_25
 10
0.0
 20
0.0
 30
0.0
  0
INSERT
  5
4C3
330
1F
100
AcDbEntity
  8
LAYER0014
  6
CONTINUOUS
100
AcDbBlockReference
  2
DA_IMAGEDIMGROUP_26
 10
0.0
 20
0.0
 30
0.0
  0
INSERT
  5
4C4
330
1F
100
AcDbEntity
  8
LAYER0014
  6
CONTINUOUS
100
AcDbBlockReference
  2
DA_IMAGEDIMGROUP_27
 10
0.0
 20
0.0
 30
0.0
  0
INSERT
  5
4C5
330
1F
100
AcDbEntity
  8
LAYER0014
  6
CONTINUOUS
100
AcDbBlockReference
  2
DA_IMAGEDIMGROUP_28
 10
0.0
 20
0.0
 30
0.0
  0
INSERT
  5
4C6
330
1F
100
AcDbEntity
  8
LAYER0014
  6
CONTINUOUS
100
AcDbBlockReference
  2
DA_IMAGEDIMGROUP_29
 10
0.0
 20
0.0
 30
0.0
  0
INSERT
  5
4C7
330
1F
100
AcDbEntity
  8
LAYER0014
  6
CONTINUOUS
100
AcDbBlockReference
  2
DA_IMAGEDIMGROUP_30
 10
0.0
 20
0.0
 30
0.0
  0
INSERT
  5
4C8
330
1F
100
AcDbEntity
  8
LAYER0013
  6
CONTINUOUS
100
AcDbBlockReference
  2
GROUP_6
 10
0.0
 20
0.0
 30
0.0
  0
INSERT
  5
4C9
330
1F
100
AcDbEntity
  8
LAYER0014
  6
CONTINUOUS
100
AcDbBlockReference
  2
GROUP_7
 10
0.0
 20
0.0
 30
0.0
  0
LINE
  5
4CA
330
1F
100
AcDbEntity
  8
LAYER0014
 62
     3
100
AcDbLine
 10
625.5300914130069
 20
-300.2705714372569
 30
0.0
 11
625.5300914130069
 21
-296.2705714372569
 31
0.0
  0
LINE
  5
4CB
330
1F
100
AcDbEntity
  8
LAYER0014
 62
     3
100
AcDbLine
 10
643.5300914130069
 20
-300.2705714372569
 30
0.0
 11
643.5300914130069
 21
-296.2705714372569
 31
0.0
  0
LINE
  5
4CC
330
1F
100
AcDbEntity
  8
LAYER0014
 62
     3
100
AcDbLine
 10
625.5300914130069
 20
-296.2705714372569
 30
0.0
 11
643.5300914130069
 21
-296.2705714372569
 31
0.0
  0
INSERT
  5
4CD
330
1F
100
AcDbEntity
  8
ZUWAKU
  6
CONTINUOUS
100
AcDbBlockReference
  2
GROUP_8
 10
0.0
 20
0.0
 30
0.0
  0
LINE
  5
4CE
330
1F
100
AcDbEntity
  8
0
 62
     4
100
AcDbLine
 10
432.5
 20
327.5
 30
0.0
 11
832.5
 21
327.5
 31
0.0
  0
LINE
  5
4CF
330
1F
100
AcDbEntity
  8
0
 62
     4
100
AcDbLine
 10
432.5
 20
577.5
 30
0.0
 11
432.5
 21
327.5
 31
0.0
  0
LINE
  5
4D0
330
1F
100
AcDbEntity
  8
LAYER0014
  6
DIVIDE
 62
     4
100
AcDbLine
 10
222.5247400214218
 20
-203.9201914380697
 30
0.0
 11
253.1007766175159
 21
-197.2819729665493
 31
0.0
  0
VIEWPORT
  5
30
330
1B
100
AcDbEntity
 67
     1
  8
0
100
AcDbViewport
 10
-186.252007136485
 20
-67.5753791257805
 30
0.0
 40
6112.512042818911
 41
3870.452274754683
 68
     1
 69
     1
1001
ACAD
1000
MVIEW
1002
{
1070
    16
1010
0.0
1020
0.0
1030
0.0
1010
0.0
1020
0.0
1030
1.0
1040
0.0
1040
3870.452274754683
1040
-186.252007136485
1040
-67.5753791257805
1040
50.0
1040
0.0
1040
0.0
1070
     0
1070
   100
1070
     0
1070
     1
1070
     0
1070
     0
1070
     0
1070
     0
1040
0.0
1040
0.0
1040
0.0
1040
1.0
1040
1.0
1040
0.0
1040
0.0
1070
     0
1002
{
1002
}
1002
}
  0
ENDSEC
  0
SECTION
  2
OBJECTS
  0
DICTIONARY
  5
C
330
0
100
AcDbDictionary
  3
ACAD_GROUP
350
D
  3
ACAD_LAYOUT
350
1A
  3
ACAD_MLINESTYLE
350
17
  3
ACAD_PLOTSETTINGS
350
19
  3
ACDBHEADERROUNDTRIPXREC
350
4D1
  0
DICTIONARY
  5
4F1
330
29
100
AcDbDictionary
280
     1
  3
ACAD_XREC_ROUNDTRIP
360
4F2
  0
DICTIONARY
  5
D
102
{ACAD_REACTORS
330
C
102
}
330
C
100
AcDbDictionary
  0
DICTIONARY
  5
1A
102
{ACAD_REACTORS
330
C
102
}
330
C
100
AcDbDictionary
  0
DICTIONARY
  5
17
102
{ACAD_REACTORS
330
C
102
}
330
C
100
AcDbDictionary
  3
STANDARD
350
18
  0
DICTIONARY
  5
19
102
{ACAD_REACTORS
330
C
102
}
330
C
100
AcDbDictionary
  0
DICTIONARY
  5
4D1
102
{ACAD_REACTORS
330
C
102
}
330
C
100
AcDbDictionary
  3
CEPSNTYPE
350
4DA
  3
DIMSTYLEDATA
350
4F0
  3
FINGERPRINTGUID
350
4DB
  3
HYPERLINKBASE
350
4D4
  3
INSUNITS
350
4D9
  3
LAYOUTDICT
350
4D6
  3
LWETCUNION
350
4D8
  3
PLOTSETDICT
350
4D7
  3
PSVPSCALE
350
4DD
  3
PUCSBASE
350
4E0
  3
PUCSORGBACK
350
4E6
  3
PUCSORGBOTTOM
350
4E2
  3
PUCSORGFRONT
350
4E5
  3
PUCSORGLEFT
350
4E3
  3
PUCSORGRIGHT
350
4E4
  3
PUCSORGTOP
350
4E1
  3
PUCSORTHOREF
350
4DE
  3
PUCSORTHOVIEW
350
4DF
  3
STYLESHEET
350
4D5
  3
TSTACKALIGN
350
4D2
  3
TSTACKSIZE
350
4D3
  3
UCSBASE
350
4E9
  3
UCSORGBACK
350
4EF
  3
UCSORGBOTTOM
350
4EB
  3
UCSORGFRONT
350
4EE
  3
UCSORGLEFT
350
4EC
  3
UCSORGRIGHT
350
4ED
  3
UCSORGTOP
350
4EA
  3
UCSORTHOREF
350
4E7
  3
UCSORTHOVIEW
350
4E8
  3
VERSIONGUID
350
4DC
  0
XRECORD
  5
4F2
102
{ACAD_REACTORS
330
4F1
102
}
330
4F1
100
AcDbXrecord
102
UCS
 74
     0
 71
     1
 10
0.0
 20
0.0
 30
0.0
 10
1.0
 20
0.0
 30
0.0
 10
0.0
 20
1.0
 30
0.0
146
0.0
 79
     0
102
VIEW
281
     0
  0
MLINESTYLE
  5
18
102
{ACAD_REACTORS
330
17
102
}
330
17
100
AcDbMlineStyle
  2
Standard
 70
     0
  3

 62
   256
 51
90.0
 52
90.0
 71
     2
 49
0.5
 62
   256
  6
BYLAYER
 49
-0.5
 62
   256
  6
BYLAYER
  0
XRECORD
  5
4DA
102
{ACAD_REACTORS
330
4D1
102
}
330
4D1
100
AcDbXrecord
 90
        0
  0
XRECORD
  5
4F0
102
{ACAD_REACTORS
330
4D1
102
}
330
4D1
100
AcDbXrecord
1000
DSTYLE
1002
{
1070
   171
 70
     2
1070
   143
 40
25.4
1070
   274
 70
     2
1070
    41
 40
0.18
1070
   141
 40
0.09
1070
   271
 70
     4
1070
    43
 40
0.38
1070
    44
 40
0.18
1070
   278
 70
    46
1070
    42
 40
0.0625
1070
   147
 40
0.09
1070
    77
 70
     3
1070
   272
 70
     4
1070
    73
 70
     1
1070
   172
 70
     0
1070
    74
 70
     1
1070
   283
 70
     1
1070
   340
340
11
1070
   140
 40
0.18
1070
   284
 70
     0
1070
    78
 70
     0
1002
}
  0
XRECORD
  5
4DB
102
{ACAD_REACTORS
330
4D1
102
}
330
4D1
100
AcDbXrecord
  1
{FAEB1C30-E019-11D5-929B-00C0DF256EC4}
  0
XRECORD
  5
4D4
102
{ACAD_REACTORS
330
4D1
102
}
330
4D1
100
AcDbXrecord
  1

  0
XRECORD
  5
4D9
102
{ACAD_REACTORS
330
4D1
102
}
330
4D1
100
AcDbXrecord
 90
        4
  0
XRECORD
  5
4D6
102
{ACAD_REACTORS
330
4D1
102
}
330
4D1
100
AcDbXrecord
340
1A
  0
XRECORD
  5
4D8
102
{ACAD_REACTORS
330
4D1
102
}
330
4D1
100
AcDbXrecord
 90
    10752
  0
XRECORD
  5
4D7
102
{ACAD_REACTORS
330
4D1
102
}
330
4D1
100
AcDbXrecord
340
19
  0
XRECORD
  5
4DD
102
{ACAD_REACTORS
330
4D1
102
}
330
4D1
100
AcDbXrecord
 40
0.0
  0
XRECORD
  5
4E0
102
{ACAD_REACTORS
330
4D1
102
}
330
4D1
100
AcDbXrecord
340
0
  0
XRECORD
  5
4E6
102
{ACAD_REACTORS
330
4D1
102
}
330
4D1
100
AcDbXrecord
 10
0.0
 20
0.0
 30
0.0
  0
XRECORD
  5
4E2
102
{ACAD_REACTORS
330
4D1
102
}
330
4D1
100
AcDbXrecord
 10
0.0
 20
0.0
 30
0.0
  0
XRECORD
  5
4E5
102
{ACAD_REACTORS
330
4D1
102
}
330
4D1
100
AcDbXrecord
 10
0.0
 20
0.0
 30
0.0
  0
XRECORD
  5
4E3
102
{ACAD_REACTORS
330
4D1
102
}
330
4D1
100
AcDbXrecord
 10
0.0
 20
0.0
 30
0.0
  0
XRECORD
  5
4E4
102
{ACAD_REACTORS
330
4D1
102
}
330
4D1
100
AcDbXrecord
 10
0.0
 20
0.0
 30
0.0
  0
XRECORD
  5
4E1
102
{ACAD_REACTORS
330
4D1
102
}
330
4D1
100
AcDbXrecord
 10
0.0
 20
0.0
 30
0.0
  0
XRECORD
  5
4DE
102
{ACAD_REACTORS
330
4D1
102
}
330
4D1
100
AcDbXrecord
340
0
  0
XRECORD
  5
4DF
102
{ACAD_REACTORS
330
4D1
102
}
330
4D1
100
AcDbXrecord
 70
     0
  0
XRECORD
  5
4D5
102
{ACAD_REACTORS
330
4D1
102
}
330
4D1
100
AcDbXrecord
  1

  0
XRECORD
  5
4D2
102
{ACAD_REACTORS
330
4D1
102
}
330
4D1
100
AcDbXrecord
 90
        1
  0
XRECORD
  5
4D3
102
{ACAD_REACTORS
330
4D1
102
}
330
4D1
100
AcDbXrecord
 90
       70
  0
XRECORD
  5
4E9
102
{ACAD_REACTORS
330
4D1
102
}
330
4D1
100
AcDbXrecord
340
0
  0
XRECORD
  5
4EF
102
{ACAD_REACTORS
330
4D1
102
}
330
4D1
100
AcDbXrecord
 10
0.0
 20
0.0
 30
0.0
  0
XRECORD
  5
4EB
102
{ACAD_REACTORS
330
4D1
102
}
330
4D1
100
AcDbXrecord
 10
0.0
 20
0.0
 30
0.0
  0
XRECORD
  5
4EE
102
{ACAD_REACTORS
330
4D1
102
}
330
4D1
100
AcDbXrecord
 10
0.0
 20
0.0
 30
0.0
  0
XRECORD
  5
4EC
102
{ACAD_REACTORS
330
4D1
102
}
330
4D1
100
AcDbXrecord
 10
0.0
 20
0.0
 30
0.0
  0
XRECORD
  5
4ED
102
{ACAD_REACTORS
330
4D1
102
}
330
4D1
100
AcDbXrecord
 10
0.0
 20
0.0
 30
0.0
  0
XRECORD
  5
4EA
102
{ACAD_REACTORS
330
4D1
102
}
330
4D1
100
AcDbXrecord
 10
0.0
 20
0.0
 30
0.0
  0
XRECORD
  5
4E7
102
{ACAD_REACTORS
330
4D1
102
}
330
4D1
100
AcDbXrecord
340
0
  0
XRECORD
  5
4E8
102
{ACAD_REACTORS
330
4D1
102
}
330
4D1
100
AcDbXrecord
 70
     0
  0
XRECORD
  5
4DC
102
{ACAD_REACTORS
330
4D1
102
}
330
4D1
100
AcDbXrecord
  1
{FAEB1C32-E019-11D5-929B-00C0DF256EC4}
  0
ENDSEC
  0
EOF
